Oops, an error
Loading. Please wait.

Jesus Shootin Heroin bass

687 views 1 this week
no commentswrite comment
1 2 3 4 5
x 4
add to favorites
×
Save as Personal and add changes to this tab that will be seen only by you. Learn more ›
×
You can save this tab as Personal to edit and correct it or add notes. All changes will be seen only by you. Learn more »
launch autoscroll
font size
0
reset
guitar tuner
edit
Autoscroll
slow
fast
+/-
esc
set tempo
stop
Band: The Flaming Lips
Members: Richard English, Wayne Coyne, Michael Ivins, Ryan Farlow, (Line up at the 
release of album in 1986)
Song: Jesus Shooting Heroin
Album: Hear It Is
Tabbed By: Scott Anderson
Symbol key: ~ - let note ring out
            \ - slide down
            h - hammer on

Tuning: EADG (standard)

If you think that there are errors with this tab, please leave a comment or PM me 
before you rate it so I can correct it.

Bass comes in at around 1:01:

G|----------------------------------|
D|----------------------------------|
A|----3--0----------3-2-0-----------|
E|----------0-----------------------|


1st chorus:

G|---6----6----6----6---11\---|
D|-5----5----5----5-----------|
A|----------------------------|
E|----------------------------|x4


1st bridge:

G|-----------------|
D|-----------------|
A|-5-5--3-2-3-2--5-|
E|-----------------|x2


Pre-verse:

G|----------------------------------|
D|----------------------------------|
A|----3--0----------3-2-0-----------|
E|----------0--------------3--0-----|x2


1st verse:

G|-------------------------------|
D|-------------------------------|
A|----3-2-0----------3-2-0-------|
E|----------3--0-----------3--0--|x3


Pre-chorus:

G|-----------|
D|-----------|
A|-----------|
E|-0-1-0-1-0-|


2nd chorus:

G|--------------------------|
D|--------------------------|
A|---4----4----4----4---9\--|
E|-3----3----3----3---------|x4


2nd bridge:

G|-----------------|
D|-----------------|
A|-5-5--3-2-3-2--5-|
E|-----------------|x2


Guitar solo:

G|----------------------------------|
D|----------------------------------|
A|----3-2-0----------3-2-0----------|
E|----------3--0-----------3-2-0----|x3

G|-----------------|
D|-----------------|
A|----3-2-0--------|
E|-----------0-----|


2nd verse:

G|--------------------------------|
D|--------------------------------|
A|----3-2-0----------3-2-0--------|
E|----------3-2-0-----------3--0--|x3

G|-----------------------------------------------|
D|--------------2-3-2h3--------------------------|
A|----3-0-------------------3-2-0----------------|
E|--------3-2-0--------------------0--0-1-0-1-0--|

G|--------------------------------------------|
D|--------------------------------------------|
A|----3-0--------------3-2-0------------------|
E|--------3-2-0--0------------3-2-0--0-1-1-0--|

G|-----|
D|-----|
A|--3--|
E|-----|

G|--------------------------|
D|--------------------------|
A|---0-----------3-2-0------|
E|------3-2-0----------3-0--|

G|-----------|
D|-----------|
A|--0--3--2--|
E|-----------|

G|------------------|
D|------------------|
A|----3-2-0---------|
E|----------3-2-0---|x3


3rd chorus:

G|--------------------------|
D|--------------------------|
A|---4----4----4----4---9\--|
E|-3----3----3----3---------|x4


3rd bridge:

G|-----------------|
D|-----------------|
A|-5-5--3-2-3-2--5-|
E|-----------------|x2


End on these notes:

G|----------|
D|----------|
A|--0--3~---|
E|----------|

            
            
Suggest correction
Creating personal tab
Creating personal tab
You can edit any tab online and save it as your Personal.

You can edit, replace or remove any tab part or add personal notes – all changes will be seen only by you.

Personal tabs can be accessed anytime from any device, even offline.
Learn more »
comments
print report bad tab
guest
You may want to rate the tab now too:
select rating
Wanna post a correction for this tab? Suggest correction