Oops, an error
Loading. Please wait.

Kims Watermelon Gun tab

1,779 views 3 this week
1 commentread comment
1 2 3 4 5
2 more votes to show rating
add to favorites
×
Save as Personal and add changes to this tab that will be seen only by you. Learn more ›
×
You can save this tab as Personal to edit and correct it or add notes. All changes will be seen only by you. Learn more »
launch autoscroll
font size
0
reset
how to read this tab
guitar tuner
edit
Autoscroll
slow
fast
+/-
esc
set tempo
stop
Author
THE FLAMING LIPS

KIM"S WATERMELON GUN

tabbed by dan (yellowledbetter_69@hotmail.co.uk)

Standard tuning

clean guitar fills tabbed at the end

|------------------|--------------------------|
|------------------|--------------------------|
|------------------|--------------------------|
|--0-0-0-3-0-3b-3b-|--0-0-0-0-0-3-3b-0-3-3b---|
|------------------|--------------------------|
|------------------|--------------------------|
false intro        intro (repeat a lot)  random bends

|--2-2-2vvvvvvvvvv--2-2-2vvvvvvvvv------|
|--3-3-3vvvvvvvvvv--3-3-3vvvvvvvvv------|
|--2-2-2vvvvvvvvvv--2-2-2vvvvvvvvv------|
|--0-0-0vvvvvvvvvv--0-0-0vvvvvvvvv------|
|---------------------------------------|
|---------------------------------------|
intro rhythm guitar  repeat as necessary

|---------------------------------|
|---------------------------------|
|--0-0-0-0-0-0-0-0-0-0-0-0-0-0-0--|
|--2-2-2-2-2-2-2-2-2-2-2-2-2-2-2--|
|--2-2-2-2-2-2-2-2-2-2-2-2-2-2-2--|
|--0-0-0-0-0-0-0-0-0-0-0-0-0-0-0--|
pre-verse    (kim's got the answer...)

|-----14----------14----------14-------14-----|
|--------15----------15----------15-------15--|
|--14-------14-16-------16-14-------16--------|
|---------------------------------------------|
|---------------------------------------------|
|---------------------------------------------|
quiet bit    x2

|------------------------------------------------------------------|
|------------------------------------------------------------------|
|------------------------------------------------------------------|
|--7-7-7-7-7-7-7-7--6-6-6--7-7-7-7--5-5-5-5-5-5-5-5--4-4-4--5-5-5--|
|--7-7-7-7-7-7-7-7--6-6-6--7-7-7-7--5-5-5-5-5-5-5-5--4-4-4--5-5-5--|
|--5-5-5-5-5-5-5-5--4-4-4--5-5-5-5--3-3-3-3-3-3-3-3--2-2-2--3-3-3--|
verse   (...want permission...

|--2-2-2-2-2-2-2-2-----------------|
|--3-3-3-3-3-3-3-3-----------------|
|--2-2-2-2-2-2-2-2--4-4-4--6-6-6---|
|--0-0-0-0-0-0-0-0--4-4-4--6-6-6---|
|-------------------2-2-2--4-4-4---|
|----------------------------------|
next bit  x2 then back to verse

|--2-2-2-2-2-2-2-2-2-2---------------------3-3-3-3-3-3-3-3-3-3-3---|
|--3-3-3-3-3-3-3-3-3-3--2-2-2-2-2-2-2-2-2--3-3-3-3-3-3-3-3-3-3-3---|
|--2-2-2-2-2-2-2-2-2-2--2-2-2-2-2-2-2-2-2--0-0-0-0-0-0-0-0-0-0-0---|
|--0-0-0-0-0-0-0-0-0-0--2-2-2-2-2-2-2-2-2--0-0-0-0-0-0-0-0-0-0-0---|
|-----------------------0-0-0-0-0-0-0-0-0--2-2-2-2-2-2-2-2-2-2-2---|
|------------------------------------------3-3-3-3-3-3-3-3-3-3-3---|
chorus  other guitar plays intro part

other rhythm parts are repeats. easy to figure out where they go.

clean verse fills
|--------5-----------5-----------------|
|--7p5-----7--7p5------7p5---9b-9b-9b--|
|------7----------7--------------------|
|--------------------------------------|
|--------------------------------------|
|--------------------------------------|
riff before and in between verses (play loosely)

|---10----------10-----------10----------10--------|
|------10---10b----r10---10b----r10--10b-----r10---|
|--------------------------------------------------|
|--------------------------------------------------|
|--------------------------------------------------|
|--------------------------------------------------|
throughout verses

that's about everything.

            
            
Suggest correction
Creating personal tab
Creating personal tab
You can edit any tab online and save it as your Personal.

You can edit, replace or remove any tab part or add personal notes – all changes will be seen only by you.

Personal tabs can be accessed anytime from any device, even offline.
Learn more »
Give kudos to tab author, rate the tab!
1 2 3 4 5
comments
print report bad tab
1 comment total.
0 reply
lifer 482 Sep 05, 2010 05:10 AM

it's good, but i think the chord before the verse is Em, not E

guest
You may want to rate the tab now too:
select rating
Wanna post a correction for this tab? Suggest correction