Oops, an error
Loading. Please wait.

This Here Giraffe bass

875 views 3 this week
no commentswrite comment
1 2 3 4 5
3 more votes to show rating
add to favorites
×
Save as Personal and add changes to this tab that will be seen only by you. Learn more ›
×
You can save this tab as Personal to edit and correct it or add notes. All changes will be seen only by you. Learn more »
launch autoscroll
font size
0
reset
guitar tuner
edit
Autoscroll
slow
fast
+/-
esc
set tempo
stop
Author
This Here Giraffe (Bass Tab)
The Flaming Lips
Clouds Taste Metallic

Intro (0:09)
G|------------------|------------------|----------------|----------------|
D|------6-7--/11-9--|------6-7--/11-9--|------6-7--9-7--|------6-7--9-7--|
A|--7-9-------------|--7-9-------------|--7-9-----------|--7-9-----------|
E|------------------|------------------|----------------|----------------|

G|------------------|------------------|----------------|----------------|
D|------6-7--/11-9--|------6-7--/11-9--|------6---------|------6---------|
A|--7-9-------------|--7-9-------------|--7-9---7--6-7--|--7-9---7--6-7--|
E|------------------|------------------|----------------|----------------|

Verse (0:24)
G|------------------|------------------|----------------|----------------|
D|------6-7--/11-9--|------6-7--/11-9--|------6-7--9-7--|------6-7--9-7--|
A|--7-9-------------|--7-9-------------|--7-9-----------|--7-9-----------|
E|------------------|------------------|----------------|----------------|
        I saw this bird...

G|------------------|------------------|----------------|----------------|
D|------6-7--/11-9--|------6-7--/11-9--|------6---------|------6---------|
A|--7-9-------------|--7-9-------------|--7-9---7--6-7--|--7-9---7--6-7--|
E|------------------|------------------|----------------|----------------|
        Without him ever...

G|------------------|------------------|----------------|----------------|
D|------6-7--/11-9--|------6-7--/11-9--|------6-7--9-7--|------6-7--9-7--|
A|--7-9-------------|--7-9-------------|--7-9-----------|--7-9-----------|
E|------------------|------------------|----------------|----------------|
        This here giraffe...

G|------------------|------------------|----------------|----------------|
D|------6-7--/11-9--|------6-7--/11-9--|------6---------|------6---------|
A|--7-9-------------|--7-9-------------|--7-9---7--6-7--|--7-9---7--6-7--|
E|------------------|------------------|----------------|----------------|
        He wouldn't take...

Pre-Chorus (0:54)
G|------------------|------------------|----------------|----------------|
D|------------------|------------------|------6---------|------6---------| repeat x2
A|--0~~~~-----------|--/7~~~~----------|--7-9---7--6-7--|--7-9---7--6-7--| 
E|------------------|------------------|----------------|----------------|
 ...hear          yourself               thinking

Chorus (1:09)
G|------------------|------------------|------------------|------------------|
D|------6-7--/11-9--|------6-7--/11-9--|------6-7--/11-9--|------6-7--/11-9--| repeat x3
A|--7-9-------------|--7-9-------------|--7-9-------------|--7-9-------------|
E|------------------|------------------|------------------|------------------|
    This here giraffe                   laughed

Break (1:32)
G|----------------|----------------|
D|------6---------|------6---------|
A|--7-9---7--6-7--|--7-9---7--6-7--|
E|----------------|----------------|

Verse (1:36)
G|------------------|------------------|----------------|----------------|
D|------6-7--/11-9--|------6-7--/11-9--|------6-7--9-7--|------6-7--9-7--|
A|--7-9-------------|--7-9-------------|--7-9-----------|--7-9-----------|
E|------------------|------------------|----------------|----------------|
        I saw this man...

G|------------------|------------------|----------------|----------------|
D|------6-7--/11-9--|------6-7--/11-9--|------6---------|------6---------|
A|--7-9-------------|--7-9-------------|--7-9---7--6-7--|--7-9---7--6-7--|
E|------------------|------------------|----------------|----------------|
        With his binoculars...

G|------------------|------------------|----------------|----------------|
D|------6-7--/11-9--|------6-7--/11-9--|------6-7--9-7--|------6-7--9-7--|
A|--7-9-------------|--7-9-------------|--7-9-----------|--7-9-----------|
E|------------------|------------------|----------------|----------------|
        He couldn't tell...

G|------------------|------------------|----------------|----------------|
D|------6-7--/11-9--|------6-7--/11-9--|------6---------|------6---------|
A|--7-9-------------|--7-9-------------|--7-9---7--6-7--|--7-9---7--6-7--|
E|------------------|------------------|----------------|----------------|
        Just lost all...

Pre-Chorus 2 (2:06)
G|------------------|------------------|----------------|----------------|
D|------------------|------------------|------6---------|------6---------| repeat x2
A|--0~~~~-----------|--/7~~~~----------|--7-9---7--6-7--|--7-9---7--6-7--| 
E|------------------|------------------|----------------|----------------|
 ...feel          yourself               shrinking

Chorus 2 (2:21)
G|------------------|------------------|------------------|------------------|
D|------6-7--/11-9--|------6-7--/11-9--|------6-7--/11-9--|------6-7--/11-9--| repeat x3
A|--7-9-------------|--7-9-------------|--7-9-------------|--7-9-------------|
E|------------------|------------------|------------------|------------------|
    This here giraffe                   laughed

Bridge (2:43)
G|------------------|------------------|------------------|------------------|
D|------6-7--/11-9--|------6-7--/11-9--|------6-7--/11-9--|------6-7--/11-9--|
A|--7-9-------------|--7-9-------------|--7-9-------------|--7-9-------------|
E|------------------|------------------|------------------|------------------|
              And you feel...
G|------------------|------------------|------------------|--9-7-6-7---6-9\--|
D|------6-7--/11-9--|------6-7--/11-9--|------6-7--/11-9--|------------------|
A|--7-9-------------|--7-9-------------|--7-9-------------|------------------|
E|------------------|------------------|------------------|------------------|
              And you feel...

Chorus 3 (2:58)
G|------------------|------------------|------------------|------------------|
D|------6-7--/11-9--|------6-7--/11-9--|------6-7--/11-9--|------6-7--/11-9--| repeat x4
A|--7-9-------------|--7-9-------------|--7-9-------------|--7-9-------------|
E|------------------|------------------|------------------|------------------|
    This here giraffe                   laughed

Break 2/Outro (3:28)
G|------------------|----------------|----------------|
D|------6-7--/11-9--|------6---------|----------------|
A|--7-9-------------|--7-9---7--6-7--|--0~~~~---------|
E|------------------|----------------|----------------|

And that's it! Enjoy!

            
            
Suggest correction
Creating personal tab
Creating personal tab
You can edit any tab online and save it as your Personal.

You can edit, replace or remove any tab part or add personal notes – all changes will be seen only by you.

Personal tabs can be accessed anytime from any device, even offline.
Learn more »
Give kudos to tab author, rate the tab!
1 2 3 4 5
comments
print report bad tab
guest
You may want to rate the tab now too:
select rating
Wanna post a correction for this tab? Suggest correction