Oops, an error
Loading. Please wait.

Wand bass

4,513 views 1 this week
3 commentsread comments
1 2 3 4 5
1 last vote to show rating
add to favorites
×
Save as Personal and add changes to this tab that will be seen only by you. Learn more ›
×
You can save this tab as Personal to edit and correct it or add notes. All changes will be seen only by you. Learn more »
launch autoscroll
font size
0
reset
guitar tuner
edit
Autoscroll
slow
fast
+/-
esc
set tempo
stop
Author
Intro- Play nothing.

Main Riff
G-----------|
D-----------|
A-5-5-5p3---|
E--------5--|

2nd Riff
G-----------|
D-----------|
A-3-3-3p1---|
E--------3--|

3rd Riff
G------------------|
D------------------|
A-8-8-8-5--8-8-8-7-|
E------------------|

That’s it. The timing is really easy to 
figure out, just listen to the song. 
Have fun with this one. 
Suggest correction
Creating personal tab
Creating personal tab
You can edit any tab online and save it as your Personal.

You can edit, replace or remove any tab part or add personal notes – all changes will be seen only by you.

Personal tabs can be accessed anytime from any device, even offline.
Learn more »
Give kudos to tab author, rate the tab!
1 2 3 4 5
comments
print report bad tab
3 comments total.
0 reply
Tabarslap 10 Apr 13, 2008 09:57 AM

Good and simple tab!

+1 reply
barb3rman 111 May 29, 2008 06:31 PM

It's good but where are all the fills?

0 reply
grafittibob 52 Mar 21, 2013 02:04 PM

Not good at all unless you're tone deaf. And you're missing the part immediately after the riff.
Main Riff
G------------------------------------|
D------------------------------------|
A-5-5-5p4-----4----5-5-5p4----4------|
E--------5---5---------------5-------|

2nd Riff
G-----------------------------------------|
D-----------------------------------------|
A-3-3-3p2----2-3---3-3-3p2------2-3-------|
E--------3--3--------------3--3-----------|

guest
You may want to rate the tab now too:
select rating
Wanna post a correction for this tab? Suggest correction