Oops, an error
Loading. Please wait.

Wand tab

21,868 views 9 this week
5 commentsread comments
1 2 3 4 5
x 14
add to favorites
×
Save as Personal and add changes to this tab that will be seen only by you. Learn more ›
×
You can save this tab as Personal to edit and correct it or add notes. All changes will be seen only by you. Learn more »
launch autoscroll
font size
0
reset
how to read this tab
guitar tuner
edit
Autoscroll
slow
fast
+/-
esc
set tempo
stop
Author
Difficulty
-------------------------------------------------------------------------------
                             The W.A.N.D - Flaming Lips
-------------------------------------------------------------------------------
 Tabbed By: excalibur672 
 Email: excalibur627@hotmail.com


Standard Tuning

Intro:
Riff A
e|---------------------------------------------------------|
B|---------------------------------------------------------|
G|---------------------------------------------------------|
D|---------------------------------------------------------|
A|-5-5-4h5p4-----5-5-4h5p4------5-5-4h5p4----3-3-2h3p2-----|
E|-----------5v------------5v-------------5v------------3v-| x 2


Riff B
e|-----------------------------|
B|-----------------------------|
G|-----------------------------|
D|-----------------------------|
A|-8-8-8-5--8-8-8-7~~----------|
E|-----------------------------| x 2

Main Riff:
e|---------------------------------------------------|
B|---------------------------------------------------|
G|---------------------------------------------------|
D|---------------------------------------------------|
A|--5-5-4h5p4----5-5-4h5p4---4-4-4h5p4---4-4-4h5p4---|
E|------------5------------5----------5------------5-| x 4

Riff B x 2

Fill A
e|---------------------------------|
B|---------------------------------|
G|---------------------------------|
D|---------------------------------|
A|-5-5-4h5p4-----------3-3-2h3p2---|
E|-----------5-------------------3-|

Main Riff x 4

Riff B x 1

Intro Riff A x 2

Bridge:
e|------------------------------------------|
B|------------------------------------------|
G|------------------------------------------|
D|------------------------------------------|
A|-8- x 16 --10 x 16 -0/-12 x 15 -13 x 16 --|
E|------------------------------------------|

Riff B x 2 


| /  slide up
| \  slide down
| h  hammer-on
| p  pull-off
| ~  vibrato
| +  harmonic
| x  Mute note
===============================================================================

            
            
Suggest correction
Creating personal tab
Creating personal tab
You can edit any tab online and save it as your Personal.

You can edit, replace or remove any tab part or add personal notes – all changes will be seen only by you.

Personal tabs can be accessed anytime from any device, even offline.
Learn more »
comments
print report bad tab
5 comments total. Showing first comments.
0 reply
MnW 762 Apr 08, 2006 04:44 AM

Too bad the main riff is wrong. Great tab.

0 reply
MnW 762 Apr 08, 2006 04:45 AM

Main riff should be:

e|---------------------------------------------------|
B|---------------------------------------------------|
G|---------------------------------------------------|
D|---------------------------------------------------|
A|--5-5-4h5p4----5-5-4h5p4---3-3-3h4p3---3-3-3h4p3---|
E|------------5------------5----------3------------3-| x 4

+2 reply
MnW 762 Apr 08, 2006 04:46 AM

I ment:
e|---------------------------------------------------|
B|---------------------------------------------------|
G|---------------------------------------------------|
D|---------------------------------------------------|
A|--5-5-4h5p4----5-5-4h5p4---3-3-3h2p3---3-3-3h2p3---|
E|------------5------------5----------3------------3-| x 4

lol

guest
You may want to rate the tab now too:
select rating
Wanna post a correction for this tab? Suggest correction