Oops, an error
Loading. Please wait.

Yeah Yeah Yeah Song bass

version 2
version 2

Whole song

859 views 6 this week
no commentswrite comment
1 2 3 4 5
3 more votes to show rating
add to favorites
×
Save as Personal and add changes to this tab that will be seen only by you. Learn more ›
×
You can save this tab as Personal to edit and correct it or add notes. All changes will be seen only by you. Learn more »
launch autoscroll
font size
0
reset
guitar tuner
backing track
0:00
0:00
edit
Autoscroll
slow
fast
+/-
esc
set tempo
stop
Author
Difficulty
Decided to do this song some justice. 
It has a pretty sweet bass line and the only other tab on here is a bit lacking. 
I did it all by ear, so let me know if you think I missed anything. 
Enjoy and rate if you'd like. This is my first tab!

Intro
Yeah yeah yeah yeah yeah yeah yeah yeah
(00:17-00:24)
G----------------------------------------------|
D----------------------------------------------|
A---7---11--7---7/11------7---4---7------------|
E----------------------------------------------|

(00:26-00:33)
G----------------------------------------------|
D----------------------------------------------|
A--7---11--7---2---4---2-----------------------|
E----------------------------0---4---0---------|

(00:35-00:41)
G----------------------------------------------|
D----------------------------------------------|
A---7---11--7---7-/11-7------------------------|
E---------------------------5---4---5----------|

(00:44-00:50)
G----------------------------------------------|
D------------------------------------------0h2-|
A---7---11--7---7/11--7----------------0h4-----|
E-------------------------5--4--5---0h5--------|

(00:53-1:00)
G----------------------------------------------|
D----------------------------------------------|
A---7---11--7---7-/11-7------------------------|
E---------------------------5---4---5----------|

(1:02-1:09)
G--------------------------------------------0h2--|
D----------------------------------------0h4------|
A---7---11--7---7-/11-7--------------0h5----------|
E------------------------5---4---5----------------|

Verse
(1:10-1:14)
G-------------------------------------------------|
D-------------------------------------------------|
A-------------7---5-6-7---7-----------------------|
E---0-4-5--5----5-------7---7---------------------|

(1:14-1:21)
G---------------------------------------------------|
D---4---------6-----------------------------2-------|
A-----4---4-----6---6----------------0---4----------|
E-------2---------4-----5--4-5----------------------|

Chorus
(1:22-1:30)
G---------------------------------------------------|
D---------------------------------------------------|
A---------------------------------------------------|
E--00000000000000---22222222222222------------------|

(1:31-1:40)
G-----------------------------------------------------|
D------------------------2----------------------------|
A------------------0--4-------------------------------|
E--555555555555--------------000000000000-------------|


G---------------------------------------------------|
D---------------------------------------------------|
A---------------------------------------------------|
E--00000000000000---22222222222222------------------|


G-----------------------------------------|
D------------------------2----------------|
A------------------0--4-------------------|
E--555555555555---------------------------|


-Repeat intro
-verse
-chorus
-then the break with just vocals
-then chorus again but slightly different

(3:45-4:01)
G---------------------------------------------------|
D---------------------------------------------------|
A---------------------------------------------------|
E--00000000000000---22222222222222------------------|


(4:01-4:11)
G---------------------------------------------------|
D---------------------------------------------------|
A---------------------------------------------------|
E--555555555555-----0000000000/12-12-12\000000------|


(4:11-4:19)
G---------------------------------------------------|
D---------------------------------------------------|
A---------------------------------------------------|
E--00000000000000---22222222222222------------------|


(4:19-4:30)
G---------------------------------------------------|
D---------------------------------------------------|
A------------------4--777777777777777777777777777---|
E--555555555555--7----------------------------------|

(4:30-
G-----------------------------------------------------------|
D------------------------------------------------------2----|
A-77--7-6-4----------------------------------------0-4------|
E-----------7---2222222222222---55555555555555-0-5---------0|
Suggest correction
Creating personal tab
Creating personal tab
You can edit any tab online and save it as your Personal.

You can edit, replace or remove any tab part or add personal notes – all changes will be seen only by you.

Personal tabs can be accessed anytime from any device, even offline.
Learn more »
Give kudos to tab author, rate the tab!
1 2 3 4 5
comments
print report bad tab
guest
You may want to rate the tab now too:
select rating
Wanna post a correction for this tab? Suggest correction