Oops, an error
Loading. Please wait.

If You Really Love Me bass

version 1
version 1

Whole song

728 views 1 this week
4 commentsread comments
1 2 3 4 5
1 last vote to show rating
add to favorites
×
Save as Personal and add changes to this tab that will be seen only by you. Learn more ›
×
You can save this tab as Personal to edit and correct it or add notes. All changes will be seen only by you. Learn more »
launch autoscroll
font size
0
reset
guitar tuner
edit
Autoscroll
slow
fast
+/-
esc
set tempo
stop
Author
:intro &  verse

 G|-----2-----------------------------------------------------------------------------|
 D|-----------------------------------------------------------------------------------|
 A|--------32-------------------------------------------------------------------------|
E | ---0------32--023-----------------------------------------------------------------|

:bridge (i know you're in there)
 G|-------------------------------------------------------------------------------------|
 D|-------------------------------------------------------------------------------------|
 A|-------------------------------------------------------------------------------------|
 E|---0(let ring)-----------------------------------------------------------------------|


:chorus

 G|
 D|
 A|
 E|5-5-5-5-5777777733333331111113456----------------------------------------------


:sorry i could'nt get the solo. i would like some feedback on this tab or corrections
Suggest correction
Creating personal tab
Creating personal tab
You can edit any tab online and save it as your Personal.

You can edit, replace or remove any tab part or add personal notes – all changes will be seen only by you.

Personal tabs can be accessed anytime from any device, even offline.
Learn more »
Give kudos to tab author, rate the tab!
1 2 3 4 5
comments
print report bad tab
4 comments total. Showing first comments.
0 reply
TSKbassist 93 Mar 01, 2007 03:22 PM

I'm not gonna lie, this is really bad. The intro is.

|---------------------------------|
|-------2-------------------------|
|-----------3p2-------------------|
|----0-----------3p2---0--2--3----| 3x

The last time is different, I don't have a bass right here to figure it out, and I can hear something besides an E ringing out at the "I know you're in there" part, and I dunno about the chorus...

Good attempt though. Since this kinda bugs me I'm pretty sure I'll post a second version.

0 reply
TSKbassist 93 Mar 01, 2007 03:23 PM

Not one part of it is correct.

0 reply
aspbass 30 Mar 01, 2007 04:12 PM

well you should fix it

guest
You may want to rate the tab now too:
select rating
Wanna post a correction for this tab? Suggest correction