Oops, an error
Loading. Please wait.

If You Really Love Me bass

version 3
version 3

Whole song

860 views 1 this week
1 commentread comment
1 2 3 4 5
x 3
add to favorites
×
Save as Personal and add changes to this tab that will be seen only by you. Learn more ›
×
You can save this tab as Personal to edit and correct it or add notes. All changes will be seen only by you. Learn more »
launch autoscroll
font size
0
reset
guitar tuner
edit
Autoscroll
slow
fast
+/-
esc
set tempo
stop
First Tab Ever, but better than the other guys.

Intro
E|-0-0-0-0-0-0-0-//------------|

G|-----------------------------|
D|-----------------------------|
A|-----7--3-2------------------|
E|-/5---------3-2--0--2-3------|

Verse
G|-----------------------------|
D|-----------------------------|
A|-----7--3-2------------------|
E|-0---------3-2--0--2-3-------|

G|-----------------------------|
D|-----------------------------|
A|-----7--0-2-333--------------|
E|-0---------------3-2--0------|

PreChorus
G|-----------------------------|
D|-----------------------------|
A|-----00-0-5-6-7-77777--------|
E|-----------------------------|

G|-----------------------------|
D|-----------------------------|
A|-----00-0-5-6-7-77777-7-5----|
E|--------------------------7-0|

Chorus
G|-----------------------------|
D|-----------------------------|
A|-----------------------------|
E|--0-00-3p0-0-5-00-3h5-3h5----|

G|-----------------------|
D|-----------------------|
A|-----------------------|
E|--0-00-3p0-0---5-6-7-8-|

And that's the whole song. You can find out the order and this was written to the best 
my abilities. RIP TFT until you arise from the grave as Redeads.
And I expected there to be a software to write tabs. All those hyphens are hard.

            
            
Suggest correction
Creating personal tab
Creating personal tab
You can edit any tab online and save it as your Personal.

You can edit, replace or remove any tab part or add personal notes – all changes will be seen only by you.

Personal tabs can be accessed anytime from any device, even offline.
Learn more »
Give kudos to tab author, rate the tab!
1 2 3 4 5
comments
print report bad tab
1 comment total.
0 reply
Linkmaboi 10 Jul 26, 2009 09:05 PM

BTW
Tabbed by Linkmaboi

guest
Wanna post a correction for this tab? Suggest correction