Oops, an error
Loading. Please wait.

Steel For Pappa Tab

2,458 views 3 this week
no commentswrite comment
1 2 3 4 5
excellent!
x 3
add to favorites
launch autoscroll
font size
0
reset
how to read this tab
guitar tuner
Autoscroll
slow
fast
+/-
esc
set tempo
stop
Help us to improve Ultimate-Guitar.com Take our survey!
×
Author
Difficulty
novice
Title: Steel For Pappa
Artist: The Flashbulb
Tabbed by: EnviousElk

Standard tuning - EADGBE

Guitar 1 – Intro (and continues through entire song)
E||------------------------------------------------------0---------|
B||-0h2-----2------0-------0------0---3-----3-----3--------3-------|
G||-----2-----2--------1-------1--------4-----4------4-------4-----|
D||-------2-----2--------2-------2--------4-----4------4-------4---|
A||-0---------------------------------2----------------------------|
E||----------------0-----------------------------------------------|

Guitar 2 – Comes in after Guitar 1 plays Intro 2x
E||--------------------------------------------|
B||-12/14--------------------------12--14/12---|
G||--------13--13/11--9------------------------|
D||----------------------12/11--9--------------|
A||--------------------------------------------|
E||--------------------------------------------|

E||-----------------------------------------------------------|
B||-12/14-----------------------------------------------------|
G||--------13--13/11--9---------------------------------------|
D||----------------------12/11--9—9/14---12-11-9--------------|
A||----------------------------------------------9-12---------|
E||-----------------------------------------------------------|

E|-------------------------|
B|:--12/14--17/14-12-------|
G|:-------------------11---|x2
D|:------------------------|
A|:------------------------|
E|-------------------------|

E||-----------------------------------------------------------|
B||-12/14-----------------------------------------------------|
G||--------13--13/11--9---------------------------------------|
D||----------------------12/11--9-----12-11-9-----------------|
A||-------------------------------------------9-12------------|
E||-----------------------------------------------------------|

E||-----------------------------------|
B||-12/14-----------------------------|
G||--------13--13/11--9---------------|
D||----------------------12/11--9-----|
A||-----------------------------------|
E||-----------------------------------|

http://www.theflashbulb.net/
Suggest correction
Give kudos to tab author, rate the tab!
1 2 3 4 5
comments
print report bad tab
guest
You may want to rate the tab now too:
select rating
Please do not post tabs as comments. Select "correction" instead!