Oops, an error
Loading. Please wait.

Broken Bones Bass Tab

1,533 views 1 this week
no commentswrite comment
1 2 3 4 5
please rate
add to favorites
launch autoscroll
font size
0
reset
guitar tuner
Autoscroll
slow
fast
+/-
esc
set tempo
stop
Help us to improve Ultimate-Guitar.com Take our survey!
×
Author
h-hammer on
p-pull off
.-palm mute
/-slide up
\-slide down
~-let ring
^-accent the note a lot

Intro: (after the guitar goes twice)
g|--57-75-02p0----------------------|
d|-7--5--3----2320------------------|
a|------------------------3-33------|
e|-----------------11-111------3-33-|

Verse
g|--------------------------57-75-02p0--------------------
d|-------------------------7--5--3----2320----------------
a|-----------------------------------------------3-33-----
e|-55-33-11-00-55-33-11-00----------------11-111------3-33

then the breakdown
g|--------------------------57-75-020---------------------|
d|-------------------------7--5--3---2320-----------------|
a|-----------------------------------------------3-33-----|
e|-55\---------55\------------------------11-111------3-33|

then back to the verse riff with this ending instead
g|----------------------------|
d|----------------------------|
a|--------3-333---------------|
e|-1-1111------3-333-1-1111-0~|
   . .... . .... ... . ....

the the chorus:
g|------------------------------|
d|------------------------------|
a|--------33-333----------------| x2
e|-55-555--------00-000-111-333-|

second verse os slighty different:
g|--57-75-020------57-75-020------57-75-020-----------------------|
d|-7--5--3---2320-7--5--3---2320-7--5--3---2320-------------------|
a|-----------------------------------------------------3-333------|
e|----------------------------------------------11-111-------3-333|

then use the modified ending again to lead into the chorus

then then ending part(when the war is over lyrics part)
g|---------------------------------------------|
d|---------------------------------------------|
a|---------------------------------------------|
e|-0~--------1~---------0~--------1~-----33333-|
                                         ^^^^^
then back to the verse and play the second verse for a bit

ending
g|--------------------|       g|----------|
d|--------------------|       d|----------|
a|--------3-333-------| x3    a|----------|
e|-11-111-------3-333-|       e|-5---55555|
                                     ^^^^^
Suggest correction
Give kudos to tab author, rate the tab!
1 2 3 4 5
comments
print report bad tab
guest
You may want to rate the tab now too:
select rating
Wanna post a correction for this tab? Suggest correction