Oops, an error
Loading. Please wait.

Broken Bones Tab

version 1
version 1

Whole song

2,200 views 1 this week
no commentswrite comment
1 2 3 4 5
accurate
x 3
add to favorites
launch autoscroll
font size
0
reset
how to read this tab
guitar tuner
Autoscroll
slow
fast
+/-
esc
set tempo
stop
Help us to improve Ultimate-Guitar.com Take our survey!
×
Author
Band - The Flatliners
Song - Broken Bones
Album - Destroy to Create

Tuning - Standard [E A D G B e]

. = palm mute

Intro [play the 1st part 3x then the 2nd part once] play whole thing 2x
||-----------------------------|-----------------------||
||-----------------------------|-----------------------||
||-----------------------------|----------5-5-5--5-5-5-||
||-7-7-7--5-5-5--3-3-3--2-2-2--|-3-3-333--5-5-5--5-5-5-||
||-7-7-7--5-5-5--3-3-3--2-2-2--|-3-3-333--3-3-3--5-5-5-||
||-5-5-5--3-3-3--1-1-1--0-0-0--|-1-1-111---------3-3-3-||

Verse [play the 1st part 3x then the 2nd part once] play whole thing 2x
||----------------------------|-----------------------||
||----------------------------|-----------------------||
||----------------------------|----------5-5-5--5-5-5-||
||-----7------5------3------2-|-3-3-333--5-5-5--5-5-5-||
||-----7------5------3------2-|-3-3-333--3-3-3--5-5-5-||
||-5-5-5--3-3-3--1-1-1--0-0-0-|-1-1-111---------3-3-3-||
   . .    . .    . .    . .
Bridge [play 1st part 3x and 2nd part once] play whole thing 2x
||------------------------------------|--------------------------------||
||------------------------------------|--------------13-13-13----------||
||-14-14-14-14--12--12---10--10---9-9-|-10-10-101010-12-12-12-12-12-12-||
||-14-14-14-14--12--12---10--10---9-9-|-10-10-101010-10-10-10-12-12-12-||
||-12-12-12-12--10--10---8---8----7-7-|-8--8--8-8-8-----------10-10-10-||
||------------------------------------|--------------------------------||

Chorus x2
||---------------------------------------||
||---------------------------------------||
||----------5-5-5-5----------------------||
||-7-7-7-7--5-5-5-5--2-2-2-2--3-33--5-55-||
||-7-7-7-7--3-3-3-3--2-2-2-2--3-33--5-55-||
||-5-5-5-5-----------0-0-0-0--1-11--3-33-||

Verse [play the 1st part 3x then the 2nd part once] play whole thing 1x
||-----------------------------|--------------------------||
||-----------------------------|--------------------------||
||-----------------------------|-------------5-5-5--5-5-5-||
||-7-7-7--5-5-5--3-3-3--2-2-2--|-3-3-3-33-3--5-5-5--5-5-5-||
||-7-7-7--5-5-5--3-3-3--2-2-2--|-3-3-3-33-3--3-3-3--5-5-5-||
||-5-5-5--3-3-3--1-1-1--0-0-0--|-1-1-1-11-1---------3-3-3-||

Chorus x3
||---------------------------------------||
||---------------------------------------||
||----------5-5-5-5----------------------||
||-7-7-7-7--5-5-5-5--2-2-2-2--3-33--5-55-||
||-7-7-7-7--3-3-3-3--2-2-2-2--3-33--5-55-||
||-5-5-5-5-----------0-0-0-0--1-11--3-33-||

then this part x1
||---------------------------------------||
||---------------------------------------||
||----------5-5-5-5----------------------||
||-7-7-7-7--5-5-5-5--2---3---2---3---5---||
||-7-7-7-7--3-3-3-3--2---3---2---3---5---||
||-5-5-5-5-----------0---1---0---1---3---||

[play the 1st part 3x then the 2nd part once] play whole thing 2x 
[on the last time play the 2nd part 4x]
||-----------------------------|--------------------------||
||-----------------------------|--------------------------||
||-----------------------------|-------------5-5-5--5-5-5-||
||-7-7-7--5-5-5--3-3-3--2-2-2--|-3-3-3-33-3--5-5-5--5-5-5-||
||-7-7-7--5-5-5--3-3-3--2-2-2--|-3-3-3-33-3--3-3-3--5-5-5-||
||-5-5-5--3-3-3--1-1-1--0-0-0--|-1-1-1-11-1---------3-3-3-||

Bridge [play 1st part 3x and 2nd part once] play whole thing 2x
||------------------------------------|--------------------------------||
||------------------------------------|--------------13-13-13----------||
||-14-14-14-14--12--12---10--10---9-9-|-10-10-101010-12-12-12-12-12-12-||
||-14-14-14-14--12--12---10--10---9-9-|-10-10-101010-10-10-10-12-12-12-||
||-12-12-12-12--10--10---8---8----7-7-|-8--8--8-8-8-----------10-10-10-||
||------------------------------------|--------------------------------||

Outro [play the 1st part 3x and the 2nd part once]
||-----------------------|--------------||
||-----------------------|--------------||
||----------5-5-5--------|--------------||
||-3-3-333--5-5-5--5-5-5-|-7---5-5--7-7-||
||-3-3-333--3-3-3--5-5-5-|-7---5-5--7-7-||
||-1-1-111---------3-3-3-|-5---3-3--5-5-||

This is a great song please rate this, thanks =)
Suggest correction
What's this?
You can suggest a correction to this tab. Community and Mods will review your correction and vote to approve or reject it.
comments
We did not receive enough feedback on this tab! Please rate:
print report bad tab
1 2 3 4 5
guest
You may want to rate the tab now too:
select rating
Please do not post tabs as comments. Select "correction" instead!