Oops, an error
Loading. Please wait.

Broken Bones Tab

version 2
version 2

Whole song

1,527 views 1 this week
no commentswrite comment
1 2 3 4 5
2 more votes to show rating
add to favorites
launch autoscroll
font size
0
reset
how to read this tab
guitar tuner
Autoscroll
slow
fast
+/-
esc
set tempo
stop
Help us to improve Ultimate-Guitar.com Take our survey!
×
Author
Difficulty
novice
Tuning: Standard

This might not make much sense.

Intro Part A(Straight Eighth Notes)
e|---------------------------------|
B|---------------------------------|
G|---------------------------------|
D|-7-7-x-7-5-5-x-5-3-3-x-3-2-2-x-2-|
A|-7-7-x-7-5-5-x-5-3-3-x-3-2-2-x-2-|
E|-5-5-x-5-3-3-x-3-1-1-x-1-0-0-x-o-|

Intro/Verse Part B
e|----------------------------|
B|----------------------------|
G|-------------5--5-5---------|
D|-3--3--3-3-3-5--5-5--5--5-5-|
A|-3--3--3-3-3-3--3-3--5--5-5-|
E|-1--1--1-1-1---------3--3-3-|

(Intro Part A x3, Intro Part B x1)x2

Verse Part A
e|----------------------------|
B|----------------------------|
G|----------------------------|
D|-7-7-7--5-5-5--3-3-3--2-2-2-|
A|-7-7-7--5-5-5--3-3-3--2-2-2-|
E|-5-5-5--3-3-3--1-1-1--0-0-0-|
pm . .    . .    . .    . .

(Verse Part A x3, Verse Part B x1)x2

Bridge Prechorus Lead w/ Fuzz(worst part of the tab)
e|---------------------------------------------------------------------------|
B|---------------------------------------------------------------------------|
G|--------------------------------5-7--5-----------5-5-5---------------------|
D|-5h7--5-5h7-7---5-5h7-7--7--5-7---------7--5-----------5-5-5h7-7-----------|
A|----------------------------------------------8----------------------------|
E|---------------------------------------------------------------------------|

Bridge Prechorus Rhythm Part A
(Straight Eighth Note Rhythms,
Play "A" Chords as upstrokes,
Played with a clean guitar)
   V A V A V A V A V A V A V A V A
e|-5-5-x-5-x-3-x-3-x-1-x-1-x-0-x-0-|
B|-5-5-x-5-x-3-x-3-x-1-x-1-x-0-x-0-|
G|-5-5-x-5-x-4-x-4-x-2-x-2-x-0-x-0-|
D|---------------------------------|
A|---------------------------------|
E|---------------------------------|

Bridge Pre Chorus Part B
(Rhythm Changes)
   V A V A V  V V  V  V V
e|-x-1-x-1-3--3-3--3--3-3-|
B|-x-1-x-1-5--5-5--3--3-3-|
G|-x-2-x-2-5--5-5--4--4-4-|
D|------------------------|
A|------------------------|
E|------------------------|

(Bridge Prechorus Lead)\
                        X2
(B.P rhythm Ax3, Bx1)  /

Then...
Build to Chorus
ClnV A V A V Dist
e|-x-1-x-1-x----------------|
B|-x-1-x-1-x----------------|
G|-x-2-x-2-x----------------|
D|------------2-2-2-2-2-2-2-|
A|------------2-2-2-2-2-2-2-|
E|------------0-0-0-0-0-0-0-|

Chorus
e|---------------------------------------------------|
B|---------------------------------------------------|
G|-------------5--5--5-5-5---------------------------|
D|-7--7--7-7-7-5--5--5-5-5-2--2--2-2-2-3--3-3-5--5-5-|
A|-7--7--7-7-7-3--3--3-3-3-2--2--2-2-2-3--3-3-5--5-5-|
E|-5--5--5-5-5-------------0--0--0-0-0-1--1-1-3--3-3-|

Play Entire intro Once for a Post Chorus
Guitar Drops Put for a bass lead
At then end of the bass lead play Verse B palm muted.
Play P.B. Lead once cut cut the last two measures 
and play the build.

"..war is over, we'll try to start all over.."
e|---------------------------------------------------------------------------|
B|---------------------------------------------------------------------------|
G|---------------------------------------------------------------------------|
D|-2-------------------------3-----------------------------------------------|
A|-2-------------------------3-----------------------------------------------|
E|-0-------------------------1-----------------------------------------------|

"..war is over and there's no home or shelter.."
e|---------------------------------------------------------------------------|
B|---------------------------------------------------------------------------|
G|---------------------------------------------------------------------------|
D|-2-------------------------------------------------------------------------|
A|-2-------------------------------------------------------------------------|
E|-0-------------------------------------------------------------------------|

"..we'll try to start all over"
e|------------------------------------------|
B|------------------------------------------|
G|------------------------------------------|
D|(2)-----------3-----------------5-5-5-5-5-|
A|(2)-----------3-----------------5-5-5-5-5-|
E|(0)-----------1-----------------3-3-3-3-3-|

Intro Part A x3
Intro Part B x1
Intro Part A x3
Intro Part B x1

Ska Bridge(rhythm only) x 1
Ska Bridge(both parts) x1

Intro Part B x3

Outro
e|---------------|
B|---------------|
G|---------------|
D|-7----7-5-7-7--|
A|-7----7-5-7-7--|
E|-5----5-3-5-5--|

| /  slide up
| \  slide down
| h  hammer-on
| p  pull-off
| ~  vibrato
| +  harmonic
| x  Mute note
===============================================================================
Suggest correction
Give kudos to tab author, rate the tab!
1 2 3 4 5
comments
print report bad tab
guest
You may want to rate the tab now too:
select rating
Wanna post a correction for this tab? Suggest correction