Oops, an error
Loading. Please wait.

Eulogy Tab

version 1
version 1

Whole song

Interactive

17,250 views 30 this week
1 commentread comment
1 2 3 4 5
excellent!
x 6
add to favorites
launch autoscroll
font size
0
reset
how to read this tab
guitar tuner
Tab Pro tools
  • play this tab
  • loop segment
  • change instrument
  • show fretboard
  • metronome
×
Best way to learn
"Eulogy"
Autoscroll
slow
fast
+/-
esc
set tempo
stop
Contributor
e-0-x-x-5
b-0-x-x-5
g-1-x-x-6
d-2-6-6-7
a-2-7-7-7
e-0-4-0-5

e-4-4-4-4-4-4--5-5--0-0-0-0-0-0-0-0--2-2-2-2-2-2--0-0--5-5-5-5-5-5-5-5
b-5-5-5-5-5-5--5-5--0-0-0-0-0-0-0-0--2-2-2-2-2-2--0-0--5-5-5-5-5-5-5-5
g-6-6-6-6-6-6--6-6--1-1-1-1-1-1-1-1--2-2-2-2-2-2--1-1--6-6-6-6-6-6-6-6
d-6-6-6-6-6-6--7-7--2-2-2-2-2-2-2-2--4-4-4-4-4-4--2-2--7-7-7-7-7-7-7-7
a-4-4-4-4-4-4--7-7--2-2-2-2-2-2-2-2--4-4-4-4-4-4--2-2--7-7-7-7-7-7-7-7
e-x-x-x-x-x-x--5-5--0-0-0-0-0-0-0-0--2-2-2-2-2-2--0-0--5-5-5-5-5-5-5-5 (x2)

The sun shows no mercy this morning..
pm....................
x       x       x                  
x       x       x                   
x       x       x                  
2       6       7                  
2       7       7                  
0(x16)  4(x16)  5(x16)   (x2)      


you will always be remembered..
x       x       x
x       x       x
6       x       x
6       7       2
4       7       2 
x(x16)  5(x16)  0(x32)


you will never be forgotten..
x       x       x      0
x       x       x      0
6       x       x      1
6       7       2      2
4       7       2      2
x(x16)  5(x16)  0(x16) 0 (x16) 


i feel like im awake today with..
pm....................
x       x       x                  
x       x       x                   
x       x       x                  
2       6       7                  
2       7       7                  
0(x16)  4(x16)  5(x16)   (x2)


learns that hands around them will help give direction..
0-0-0-0-0-0-0-0--x-x-x-x--x-x-x-x--5-5-5-5-5-5-5-5
0-0-0-0-0-0-0-0--x-x-x-x--x-x-x-x--5-5-5-5-5-5-5-5
1-2-2-2-2-2-2-2--x-x-x-x--x-x-x-x--6-6-6-6-6-6-6-6
2-2-2-2-2-2-2-2--6-6-6-6--6-6-6-6--7-7-7-7-7-7-7-7
2-2-2-2-2-2-2-2--7-7-7-7--7-7-7-7--7-7-7-7-7-7-7-7
0-0-0-0-0-0-0-0--4-4-4-4--0-0-0-0--5-5-5-5-5-5-5-5  (x2)


youll always be remembered...
4-4-4-4-4-4-4-4--5-5-5-5-5-5-5-5--0-0-0-0-0-0-0-0--0-0-0-0-0-0-0-0
5-5-5-5-5-5-5-5--5-5-5-5-5-5-5-5--0-0-0-0-0-0-0-0--0-0-0-0-0-0-0-0
6-6-6-6-6-6-6-6--6-6-6-6-6-6-6-6--1-1-1-1-1-1-1-2--1-1-1-1-1-1-1-1
6-6-6-6-6-6-6-6--7-7-7-7-7-7-7-7--2-2-2-2-2-2-2-2--2-2-2-2-2-2-2-2
4-4-4-4-4-4-4-4--7-7-7-7-7-7-7-7--2-2-2-2-2-2-2-2--2-2-2-2-2-2-2-2
x-x-x-x-x-x-x-x--5-5-5-5-5-5-5-5--0-0-0-0-0-0-0-0--0-0-0-0-0-0-0-0 (x2)


You're not lost, you're not lost..
2-2-2-2-2-2--0-0--5-5-5-5-5-5-5-5--x
2-2-2-2-2-2--0-0--5-5-5-5-5-5-5-5--x
2-2-2-2-2-2--1-1--6-6-6-6-6-6-6-6--x
4-4-4-4-4-4--2-2--7-7-7-7-7-7-7-7--2
4-4-4-4-4-4--2-2--7-7-7-7-7-7-7-7--2
2-2-2-2-2-2--0-0--5-5-5-5-5-5-5-5--0(x32)   (x2)


these words we're screaming out,Oh god, it's gotten so loud now..
4-4-4-4-4-4-4-4--5-5-5--0-0
5-5-5-5-5-5-5-5--5-5-5--0-0
6-6-6-6-6-6-6-6--6-6-6--1-1
6-6-6-6-6-6-6-6--7-7-7--2-2
4-4-4-4-4-4-4-4--7-7-7--2-2
x-x-x-x-x-x-x-x--5-5-5--0-0


You're not lost, you're not lost.
2--0--5-5-5
2--0--5-5-5
2--1--6-6-6
4--2--7-7-7
4--2--7-7-7
2--0--5-5-5



0--0-0-0-0--0--0-0-0---0-0-0------------------
0--0-0-0-0--0--0-0-0---2-2-2------------------
1--1-1-1-1--1--1-1-1---2-2-4--2/4-4\2-1-1-2p1
2--2-2-2-2--2--2-2-2---2-2-2------------------
2--2-2-2-2--2--2-2-2---0-0-0------------------
0--0-0-0-0--0--0-0-0---x-x-x------------------

                   pm..............    
0--0-0-0-0--0--0-0-0--5------------------5
0--0-0-0-0--0--0-0-0--5------------------5
1--1-1-1-1--1--1-1-1--6------------------6
2--2-2-2-2--2--2-2-2--7-7-7-7-7-7-7-7----7
2--2-2-2-2--2--2-2-2--7-7-7-7-7-7-7-7----7
0--0-0-0-0--0--0-0-0--5-5-5-5-5-5-5-5--5-5 (x16)

OH..
4-4-4-4-4-4-4-4--x-x-x-x-x-x-x-x--5-5-5-5-5-5-5-5
5-5-5-5-5-5-5-5--x-x-x-x-x-x-x-x--5-5-5-5-5-5-5-5
6-6-6-6-6-6-6-6--x-x-x-x-x-x-x-x--6-6-6-6-6-6-6-6
6-6-6-6-6-6-6-6--6-6-6-6-6-6-6-6--7-7-7-7-7-7-7-7
4-4-4-4-4-4-4-4--7-7-7-7-7-7-7-7--7-7-7-7-7-7-7-7
x-x-x-x-x-x-x-x--4-4-4-4-4-4-4-4--5-5-5-5-5-5-5-5

you will never be forgotten...
0-0-0-0-0-0-0-0--x-x-x-x--x-x-x-x--5-5-5-5-5-5-5-5
0-0-0-0-0-0-0-0--x-x-x-x--x-x-x-x--5-5-5-5-5-5-5-5
1-1-1-1-1-1-1-1--x-x-x-x--x-x-x-x--6-6-6-6-6-6-6-6
2-2-2-2-2-2-2-2--6-6-6-6--6-6-6-6--7-7-7-7-7-7-7-7
2-2-2-2-2-2-2-2--7-7-7-7--7-7-7-7--7-7-7-7-7-7-7-7
0-0-0-0-0-0-0-0--4-4-4-4--0-0-0-0--5-5-5-5-5-5-5-5 a bunch of times

0-0-0
0-0-0
1-1-1
2-2-2
2-2-2
0-0-0  let ring
comments
print report bad tab
1 comment total.
0 reply
guitarlegendjrp wrote on July 25 2010, 04:42 pm

4/5. Get the lead and it'll be 5/5 :)
Great Tab :)

I want to post or [tab]
guest
You may want to rate the tab now too:
select rating
Please do not post tabs as comments. Select "correction" instead!