Oops, an error
Loading. Please wait.

Filthy Habits Tab

1,813 views 12 this week
no commentswrite comment
1 2 3 4 5
accurate
x 3
add to favorites
launch autoscroll
font size
0
reset
how to read this tab
guitar tuner
Autoscroll
slow
fast
+/-
esc
set tempo
stop
Help us to improve Ultimate-Guitar.com Take our survey!
×
Author
Difficulty
intermediate
-------------------------------------------------------------------------------
                             Filthy Habits - The Flatliners
-------------------------------------------------------------------------------
Tabbed by: TheTroy
Tuning: Standard

Just a little introduction here: I'm not sure about strum patterns/timings in this
tab so don't take the amount of strums i show to heart, they are more to just give a
starting point of how to go about playing it since their songs are pretty fast paced.

Hopefully this is right. It sounds pretty good if i may say so. 


00:00 - 00:25
e|-----------------------------------------|----|----------------------------|
B|-----------------------------------------|----|----------------------------|
G|-9--9--9--7-7-7-5-5-5-5-5-5------------5~|----|-9--9--9--7-7-7-9--9--9--7-7|
D|-10-10-10-9-9-9-7-7-7-7-7-7-----5--3-3-5~|-X3-|-10-10-10-9-9-9-10-10-10-9-9|
A|-0--0--0--0-0-0-0-0-0-0-0-0-5h7----3-3-3~|----|-0--0--0--0-0-0-0--0--0--0-0|
E|-----------------------------------1-1-3~|----|----------------------------|

e|---------------------------------------------------------------------------|
B|---------------------------------------------------------------------------|
G|-7-9--9--7-7-----5-5-5-5-5-5-5-5-5-5--4~-4~-4~--1~-1~-1~-------------------|
D|-9-10-10-9-9-3-3-5-5-5-5-5-5-5-5-5-5--5~-5~-5~--2~-2~-2~-------------------|
A|-0-0--0--0-0-3-3-3-3-3-3-3-3-3-3-3-3--5~-5~-5~--2~-2~-2~-------------------|
E|-------------1-1-3-3-3-3-3-3-3-3-3-3--3~-3~-3~--0~-0~-0~-------------------|

00:26-00:35
e|----------------------------------------------------------------|----|-----|
B|----------------------------------------------------------------|----|-----|
G|-5-5-5-4-4-4-5-5-5-4-4-4-5-5-4-4-------------7-7-7-7-7-7-7-7-7-7|----|-----|
D|-7-7-7-5-5-5-7-7-7-5-5-5-7-7-5-5-3-3-3-2-2-2-7-7-7-7-7-7-7-7-7-7|-X2-|-----|
A|-0-0-0-0-0-0-0-0-0-0-0-0-0-0-0-0-3-3-3-2-2-2-5-5-5-5-5-5-5-5-5-5|----|-----|
E|---------------------------------1-1-1-0-0-0-5-5-5-5-5-5-5-5-5-5|----|-----|

00:36-00:56
e|-------------------------------------------------------|----|--------------|
B|-------------------------------------------------------|----|--------------|
G|-------------------------------------------5~-5-5-5-5-5|----|-4------------|
D|-10-----9-----10-----9-------5-3-3-3-3-3-3-5~-5-5-5-5-5|-X3-|-5-5-5-5-5-5-5|
A|-0--0-0-0-0-0-0--0-0-0-0-5h7---3-3-3-3-3-3-3~-3-3-3-3-3|----|-5-5-5-5-5-5-5|
E|-------------------------------1-1-1-1-1-1-3~-3-3-3-3-3|----|-3-3-3-3-3-3-3|
      . .   . .    . .   .       . . . . . .    . . . . .         . . . . . .

e|---------------------------------------------------------------------------|
B|---------------------------------------------------------------------------|
G|-------------------1~-1~-1~~-----------------------------------------------|
D|-5-5-5-5-5-5-5-5-5-2~-2~-2~~-----------------------------------------------|
A|-5-5-5-5-5-5-5-5-5-2~-2~-2~~-----------------------------------------------|
E|-3-3-3-3-3-3-3-3-3-0~-0~-0~~-----------------------------------------------|
   . . . . . . . . .

00:57-1:06
e|---------------------------------------------------------------------------|
B|---------------------------------------------------------------------------|
G|-5-5-5-4-4-4-5-5-5-4-4-4-5-5-4-4-9--9--9--9--9--9--9--9--9--9--9--9--9--9--|
D|-7-7-7-5-5-5-7-7-7-5-5-5-7-7-5-5-10-10-10-10-10-10-10-10-10-10-10-10-10-10-|
A|---------------------------------------------------------------------------|
E|---------------------------------------------------------------------------|
   . . . . . . . . . . . . . . . . .  .  .  .  .  .  .  .  .  .  .  .  .  .

e|---------------------------------------------------------------------------|
B|---------------------------------------------------------------------------|
G|-9--9--5-5-5-4-4-4-5-5-5-4-4-4-5-5-4-4-------------------------------------|
D|-10-10-7-7-7-5-5-5-7-7-7-5-5-5-7-7-5-5-3-3-3-3-3-3-3-3-3-3-3-3-3-3-3-3-----|
A|---------------------------------------3-3-3-3-3-3-3-3-3-3-3-3-3-3-3-3-----|
E|---------------------------------------1-1-1-1-1-1-1-1-1-1-1-1-1-1-1-1-----|
   .  .  . . . . . . . . . . . . . . . . . . . . . . . . . . . . . . . . 

1:07-1:14
e|---------------------------------------------------------------------------|
B|-1-1-1-0-0-0-1-1-1-0-0-0-1-1-0-0-1-1-1-1-1-1-1-1-1-1-1-1-1-1-1-1-1-1-1-0-0-|
G|-2-2-2-0-0-0-2-2-2-0-0-0-2-2-0-0-0-0-0-0-0-0-0-0-0-0-0-0-0-0-0-0-2-2-2-0-0-|
D|-2-2-2-2-2-2-2-2-2-2-2-2-2-2-2-2-2-2-2-2-2-2-2-2-2-2-2-2-2-2-2-2-2-2-2-2-2-|
A|-0-0-0-0-0-0-0-0-0-0-0-0-0-0-0-0-3-3-3-3-3-3-3-3-3-3-3-3-3-3-3-3-0-0-0-0-0-|
E|---------------------------------------------------------------------------|

e|---------------------------------------------------------------------------|
B|-0-1-1-1-0-0-0-1-1-0-0-----------------------------------------------------|
G|-0-2-2-2-0-0-0-2-2-0-0-----------------------------------------------------|
D|-2-2-2-2-2-2-2-2-2-2-2-----------------------------------------------------|
A|-0-0-0-0-0-0-0-0-0-0-0-----------------------------------------------------|
E|---------------------------------------------------------------------------|

1:15-1:24
e|---------------------------------------------------------------------------|
B|---------------------------------------------------------------------------|
G|-------------5-5-5-5-5-5-5-5-5-5-------------5-5-5-5-4-4-4-4-4-4-----------|
D|-3-3-3-3-3-3-5-5-5-5-5-5-5-5-5-5-3-3-3-3-3-3-5-5-5-5-5-5-5-5-5-5-3-3-3-3-3-|
A|-3-3-3-3-3-3-3-3-3-3-3-3-3-3-3-3-3-3-3-3-3-3-3-3-3-3-5-5-5-5-5-5-3-3-3-3-3-|
E|-1-1-1-1-1-1-3-3-3-3-3-3-3-3-3-3-1-1-1-1-1-1-3-3-3-3-3-3-3-3-3-3-1-1-1-1-1-|

e|---------------------------------------------------------------------------|
B|---------------------------------------------------------------------------|
G|---5-5-5-5-5-5-5-5-5-5-1-1--4~---------------------------------------------|
D|-3-5-5-5-5-5-5-5-5-5-5-2-2--5~---------------------------------------------|
A|-3-3-3-3-3-3-3-3-3-3-3-2-2--5~---------------------------------------------|
E|-1-3-3-3-3-3-3-3-3-3-3-0-0--3~---------------------------------------------|

1:25-1:34
e|-----------------3---------------------------------------------------------|
B|-------------3/5-----------------------------------------------------------|
G|-5~--------5~--------------------------------------------------------------|
D|-5~-7~-3~--5~-----7~-3~----------------------------------------------------|
A|-3~-7~-3~--3~-----7~-3~----------------------------------------------------|
E|-3~-5~-1~--3~-----5~-1~----------------------------------------------------|

1:35-1:53
e|---------------------------------------------------------------------------|
B|---------------------------------------------------------------------------|
G|-5-5-5-7-7-7-9--9--9--9--9--9--9--9--9--9--10-10-10-10-9--9--9--9--9--9--9-|
D|-7-7-7-9-9-9-10-10-10-10-10-10-10-10-10-10-10-10-10-10-10-10-10-10-10-10-10|
A|-0-0-0-0-0-0-0--0--0--0--0--0--0--0--0--0--8--8--8--8--0--0--0--0--0--0--0-|
E|---------------------------------------------------------------------------|

e|---------------------------------------------------------------------------|
B|---------------------------------------------------------------------------|
G|-9--9--9--9--9--9--7-7-7-9--9--9--9--9--9--9--9--9--9----------------------|
D|-10-10-10-10-10-10-9-9-9-10-10-10-10-10-10-10-10-10-10-5-5-5-5-3--3-3-3-3~-|
A|-0--0--0--0--0--0--0-0-0-0--0--0--0--0--0--0--0--0--0--5-5-5-5-3--3-3-3-3~-|
E|-------------------------------------------------------3-3-3-3-1--1-1-1-1~-|

e|---------------------------------------------------------------------------|
B|---------------------------------------------------------------------------|
G|-5-5-5-7-7-7-9--9--9--9--9--9--9--9--9--9--10-10-10-10-9--9--9--9--9--9--9-|
D|-7-7-7-9-9-9-10-10-10-10-10-10-10-10-10-10-10-10-10-10-10-10-10-10-10-10-10|
A|-0-0-0-0-0-0-0--0--0--0--0--0--0--0--0--0--8--8--8--8--0--0--0--0--0--0--0-|
E|---------------------------------------------------------------------------|

e|---------------------------------------------------------------------------|
B|---------------------------------------------------------------------------|
G|-9--9--9--9--9--9--7-7-7-9--9--9--9--9--9--9--9--9--9----------------------|
D|-10-10-10-10-10-10-9-9-9-10-10-10-10-10-10-10-10-10-10-----5---------------|
A|-0--0--0--0--0--0--0-0-0-0--0--0--0--0--0--0--0--0--0--5h7-----------------|
E|---------------------------------------------------------------------------|

1:54-2:14
e|---------------------------------------------------------------------------|
B|---------------------------------------------------------------------------|
G|-------------5-5-5-5-5-5-5-5-5-5-------------5-5-5-5-4-4-4-4-4-4-----------|
D|-3-3-3-3-3-3-5-5-5-5-5-5-5-5-5-5-3-3-3-3-3-3-5-5-5-5-5-5-5-5-5-5-3-3-3-3-3-|
A|-3-3-3-3-3-3-3-3-3-3-3-3-3-3-3-3-3-3-3-3-3-3-3-3-3-3-5-5-5-5-5-5-3-3-3-3-3-|
E|-1-1-1-1-1-1-3-3-3-3-3-3-3-3-3-3-1-1-1-1-1-1-3-3-3-3-3-3-3-3-3-3-1-1-1-1-1-|

e|---0-0-0-0-0-0-0-0-0-0-------------0-0-0-0---------------------------------|
B|---1-1-1-1-1-1-1-1-1-1-------------1-1-1-1---------------------------------|
G|---2-2-2-2-2-2-2-2-2-2-------------2-2-2-2-4-4-4-4-4-4---------5--5-5-5-5-5|
D|-3-2-2-2-2-2-2-2-2-2-2-3-3-3-3-3-3-2-2-2-2-5-5-5-5-5-5--3--3-3-5--5-5-5-5-5|
A|-3-0-0-0-0-0-0-0-0-0-0-3-3-3-3-3-3-0-0-0-0-5-5-5-5-5-5--3--3-3-3--3-3-3-3-3|
E|-1---------------------1-1-1-1-1-1---------3-3-3-3-3-3--1--1-1-3--3-3-3-3-3|

e|------------------------------0--0-0-0-0-0-0-------------------------------|
B|------------------------------1--1-1-1-1-1-1-------------------------------|
G|--------5--5-5-4-4-4-4--------2--2-2-2-2-2-2--------5--5-5-----------------|
D|-3--3-3-5--5-5-5-5-5-5-3--3-3-2--2-2-2-2-2-2-3--3-3-5--5-5-6-6-6-6-6-6-6---|
A|-3--3-3-3--3-3-5-5-5-5-3--3-3-0--0-0-0-0-0-0-3--3-3-3--3-3-5-5-5-5-5-5-5---|
E|-1--1-1-3--3-3-3-3-3-3-1--1-1----------------1--1-1-3--3-3-4-4-4-4-4-4-4---|

2:14-END
e|---------------------------------------------------------------------------|
B|---------------------------------------------------------------------------|
G|-9--9--9--7-7-7-9--9--9--9--9------------5~-2----2----2--------5-5---------|
D|-10-10-10-9-9-9-10-10-10-10-10-----5-3-3-5~-2----2----2----3-2-5-5---------|
A|-0--0--0--0-0-0-0--0--0--0--0--5h7---3-3-3~-0----0----0----3-2-3-3---------|
E|-------------------------------------1-1-3~---3b---3b---3b-1-0-3-3---------|



************************************

| /   slide up
| \   slide down
| h   hammer-on
| p   pull-off
| ~   vibrato
| +   harmonic
| x   Mute note
| b   Bend
| pb  Pre-bend
| br  Bend release
| pbr Pre-bend release
| brb Bend release bend

************************************
Suggest correction
What's this?
You can suggest a correction to this tab. Community and Mods will review your correction and vote to approve or reject it.
comments
We did not receive enough feedback on this tab! Please rate:
print report bad tab
1 2 3 4 5
guest
You may want to rate the tab now too:
select rating
Please do not post tabs as comments. Select "correction" instead!