Oops, an error
Loading. Please wait.

Freds Got Slacks Bass Tab

3,267 views 12 this week
no commentswrite comment
1 2 3 4 5
excellent!
x 3
add to favorites
launch autoscroll
font size
0
reset
guitar tuner
Autoscroll
slow
fast
+/-
esc
set tempo
stop
Help us to improve Ultimate-Guitar.com Take our survey!
×
Contributor
Difficulty
timmyc 243
novice
h-hammer on
p-pull off
~-let ring
/-slide up
\-slide down
.-palm mute
^-accent

Intro:
g|-----------|
d|-----------|
a|-5~--------|
e|-----------|

Verse:
g|------------------------------------|
d|------------------------------------|
a|-5-55-555-5-55-555------------------| x2
e|-------------------1-11-111-6-66-666|

g|-------------------------------------|
d|-------------------------------------|
a|-------------------5-55-555----------|
e|-3-33-333-6-66-666----------1-11-111-|

first time through
g|-----------------------------|
d|-----------------------------|
a|-------------------5----5----|
e|-3-33-333-6-66-666-----------|
                     ^    ^

second time through
g|-------------------------------------|
d|-------------------------------------|
a|-------------------------------------|
e|-3-33-333-5-55-555-6-66-666-8-888888-|

chorus:
g|------------------------------------------------------------|
d|------------------------------------------------------------|
a|-----------------8-88-88-3-33-33----------------------------|
e|-5-55-65-6-66-66-----------------5-55-65-6-66-66-1-111111-1-|
                                                            ^

Brige(hands up, fists high chant)
g|-----------------------------|
d|-----------------------------|
a|----------------------3~-----|
e|-5~-----6~-----1~------------|

then strum that pattern afterwards, and go back to the chorus

ending
g|--------------------------------|
d|--------------------------------|
a|--------------------------------|  x2
e|-3-33-33-5-55-55-6-66-66-8-88-88|

then the intro
comments
We did not receive enough feedback on this tab! Please rate:
print report bad tab
1 2 3 4 5
I want to post or [tab]
guest
You may want to rate the tab now too:
select rating
Please do not post tabs as comments. Select "correction" instead!