Oops, an error
Loading. Please wait.

Freds Got Slacks Tab

version 2
version 2

Whole song

1,775 views 1 this week
2 commentsread comments
1 2 3 4 5
please rate
add to favorites
launch autoscroll
font size
0
reset
how to read this tab
guitar tuner
Autoscroll
slow
fast
+/-
esc
set tempo
stop
Help us to improve Ultimate-Guitar.com Take our survey!
×
Author
Difficulty
intermediate
-------------------------------------------------------------------------------
                        The Flatliners - Fred's Got Slacks
                                     Track 2
-------------------------------------------------------------------------------
Tabbed by: Chris Skinner
Email: c_skinz@hotmail.com

Tuning: Standard tuning through out whole CD

I'm working on the whole album right now. I know how to play it, but writing it out in 
takes me a while.

Opening riff:
e|---5-----------------------------------------------------------------------|
B|---6-----------------------------------------------------------------------|
G|---7-----------------------------------------------------------------------|
D|---7-----------------------------------------------------------------------|
A|---5-----5--3--------------------------------------------------------------|
E|---------------6--5--3--1--------------------------------------------------|

Verse: Guitar 1/2

Guitar 1 holds the chords, while Guitar 2 does the ska upstrokes.
e|---5-------------1-------5--6----------------------------------------------|
B|---6-------------1-------5--6----------------------------------------------|
G|---7--X8---------2-X3----6--7--X4------------------------------------------|           
                                 *X2
D|---7-------------3-------7--8----------------------------------------------|
A|---5-------------3-------7--8----------------------------------------------|
E|-----------------1-------5--6----------------------------------------------|

e|----3---------6---------5--------3-------3--------5------------------------|
B|----3---------6---------6--------3-------3--------5------------------------|
G|----4---------7---------7--------2-------4--------6------7----7------------|
D|----5--X4-----8-X4------7-X4-----3-X4----5--X4----7-X4---7----7------------|
A|----5---------8---------5--------3-------5--------7------5----5------------|
E|----3---------6------------------1-------3--------5------------------------|


e|---5-------------1-------5--6----------------------------------------------|
B|---6-------------1-------5--6----------------------------------------------|
G|---7--X8---------2-X3----6--7--X4------------------------------------------|           
                                 *X2
D|---7-------------3-------7--8----------------------------------------------|
A|---5-------------3-------7--8----------------------------------------------|
E|-----------------1-------5--6----------------------------------------------|


e|----3---------6---------5--------3-------3--------5------6-------8---------|
B|----3---------6---------6--------3-------3--------5------6-------8---------|
G|----4---------7---------7--------2-------4--------6------7-------9---------|
D|----5--X4-----8-X4------7-X4-----3-X4----5--X4----7-X4---8--X4---10--X4----|
A|----5---------8---------5--------3-------5--------7------8-------10--------|
E|----3---------6------------------1-------3--------5------6-------8---------|

Chorus: Guitar 1/2
e|---------------------------------------------------------------------------|
B|---------------------------------------------------------------------------|
G|------------------101010---55555-------------------------------------------|           
                                        *****   *****
D|---77777---88888--101010---55555---77777---88888---333333--333333----------|
A|---77777---88888---88888---33333---77777---88888---333333--333333----------|
E|---55555---66666-------------------55555---66666---111111--111111----------|           
                                          *= p.m


Opening Riff/Verse:
e|---5-----------------------------------------------------------------------|
B|---6-----------------------------------------------------------------------|
G|---7-----------------------------------------------------------------------|
D|---7-----------------------------------------------------------------------|
A|---5-----5--3--------------------------------------------------------------|
E|---------------6--5--3--1--------------------------------------------------|

e|---5-------------1-------5--6----------------------------------------------|
B|---6-------------1-------5--6----------------------------------------------|
G|---7--X8---------2-X3----6--7--X4------------------------------------------|           
                                 *X2
D|---7-------------3-------7--8----------------------------------------------|
A|---5-------------3-------7--8----------------------------------------------|
E|-----------------1-------5--6----------------------------------------------|

e|----3---------6---------5--------3-------3--------5------------------------|
B|----3---------6---------6--------3-------3--------5------------------------|
G|----4---------7---------7--------2-------4--------6------7----7------------|
D|----5--X4-----8-X4------7-X4-----3-X4----5--X4----7-X4---7----7------------|
A|----5---------8---------5--------3-------5--------7------5----5------------|
E|----3---------6------------------1-------3--------5------------------------|


e|---5-------------1-------5--6----------------------------------------------|
B|---6-------------1-------5--6----------------------------------------------|
G|---7--X8---------2-X3----6--7--X4------------------------------------------|           
                                 *X2
D|---7-------------3-------7--8----------------------------------------------|
A|---5-------------3-------7--8----------------------------------------------|
E|-----------------1-------5--6----------------------------------------------|


e|----3---------6---------5--------3-------3--------5------6-------8---------|
B|----3---------6---------6--------3-------3--------5------6-------8---------|
G|----4---------7---------7--------2-------4--------6------7-------9---------|
D|----5--X4-----8-X4------7-X4-----3-X4----5--X4----7-X4---8--X4---10--X4----|
A|----5---------8---------5--------3-------5--------7------8-------10--------|
E|----3---------6------------------1-------3--------5------6-------8---------|
Chrous:

e|---------------------------------------------------------------------------|
B|---------------------------------------------------------------------------|
G|------------------101010---55555-------------------------------------------|           
                                        *****   *****
D|---77777---88888--101010---55555---77777---88888---333333--333333----------|
A|---77777---88888---88888---33333---77777---88888---333333--333333----------|
E|---55555---66666-------------------55555---66666---111111--111111----------|           
                                          *= p.m

Breakdown: (1:40)

'Heads Up, Fists High'

e|---------------------------------------------------------------------------|
B|---------------------------------------------------------------------------|
G|--------------------------10-----------------------------------------------|
D|---7-------------8--------10---*---3---------------------------------------|           
                                     X2
A|---7--*Let Ring--8----*---8--------3----*----------------------------------|
E|---5-------------6-----------------1---------------------------------------|

e|---------------------------------------------------------------------------|
B|---------------------------------------------------------------------------|
G|-------------------------------55555---------------------------------------|           
                         X2
D|---77777----88888----33333-----55555---------------------------------------|
A|---77777----88888----33333-----33333---------------------------------------|
E|---55555----66666----11111-------------------------------------------------|

Chorus:

e|---------------------------------------------------------------------------|
B|---------------------------------------------------------------------------|
G|------------------101010---55555-------------------------------------------|           
                                        *****   *****
D|---77777---88888--101010---55555---77777---88888---333333--333333----------|
A|---77777---88888---88888---33333---77777---88888---333333--333333----------|
E|---55555---66666-------------------55555---66666---111111--111111----------|           
                                          *= p.m


Outro:
Guitar2
e|---------------------------------------------------------------------------|
B|---------------------------------------------------------------------------|
G|------------------101010---55555-------------------------------------------|           
                                        *****   *****
D|---77777---88888--101010---55555---77777---88888---333333--333333----------|
A|---77777---88888---88888---33333---77777---88888---333333--333333----------|
E|---55555---66666-------------------55555---66666---111111--111111----------|           
                                          *= p.m
Guitar1

e|---------------------------------------------------------------------------|
B|---------------------------------------------------------------------------|
G|---141414---151515--101010---99999-----------------------------------------|           
                                        *****   *****
D|---xxxxxx---xxxxxx--xxxxxx---xxxxx---77777---88888---333333--333333--------|
A|---121212---131313--888888---77777---77777---88888---333333--333333--------|
E|-------------------------------------55555---66666---111111--111111--------|
                                               *= p.m

    Guitar 1/2
e|---------------------------------------------------------------------------|
B|---------------------------------------------------------------------------|
G|---------------------------------------------------------------------------|
D|---5---------7--------8------10----------5--------7------8-------10--------|
A|---5---X5----7---X5---8-X5---10----X5----5--X7----7--X7--8---X7--10--X7----|
E|---3---------5--------6-------8----------3--------5------6-------8---------|

e|---5-----------------------1-----------------------------------------------|
B|---6-----------------------1-----------------------------------------------|
G|---7-----------------------2-----------------------------------------------|
D|---7-----------------------3-----------------------------------------------|
A|---5-----5--3--------------3-----------------------------------------------|
E|---------------6--5--3--1--1-----------------------------------------------|


| /  slide up
| \  slide down
| h  hammer-on
| p  pull-off
| ~  vibrato
| +  harmonic
| x  Mute note
===============================================================================
Suggest correction
Give kudos to tab author, rate the tab!
1 2 3 4 5
comments
print report bad tab
2 comments total.
0 reply
Seanith 37 wrote on May 14 2009, 02:00 pm

Unlike the other tab, the intro riff sounds exactly like what i thought it would be. good job.

0 reply
Seanith 37 wrote on May 14 2009, 02:10 pm

btw, i also hear octaves during the chorus. The 2nd guitar is playing something like
G|-10-9-10-12-10-5
D|-x--x-x--x--x--x
A|-8--7-8--10-8--3
E|----------------

guest
You may want to rate the tab now too:
select rating
Wanna post a correction for this tab? Suggest correction