Oops, an error
Loading. Please wait.

Get Out Of My Face Bass Tab

169 views 1 this week
no commentswrite comment
1 2 3 4 5
3 more votes to show rating
add to favorites
launch autoscroll
font size
0
reset
guitar tuner
Autoscroll
slow
fast
+/-
esc
set tempo
stop
Help us to improve Ultimate-Guitar.com Take our survey!
×
Author
Difficulty
So here's my bass tab of Get out of my face (demo) by the Flatliners, I hope it's 
accurate, have fun!

Intro :
G|---------------------------------------------------------|
D|---------------------------------------------------------|
A|---------6-6--6--------4-4--4----------------------------|
E|--4-4--4--------4-4--4--------7-7--7-6-6--6-4------------|

Pre-verse :
G|---------------------------------------------------------|
D|---------------------------------------------------------|
A|--------6666666-------4444444----------------------------|
E|--444444-------4444444-------777777766666664444444-------|

Verse : (2x)
G|---------------------------------------------------------|
D|---------------------------------------------------------|
A|--------6666666-------4444444----------------------------|
E|--444444-------4444444-------777777766666664444444-------|

Pre chorus :
G|---------------------------------------------------------|
D|---------------------------------------------------------|
A|--------6666666-------4444444----------------------------|
E|--444444-------4444444-------777777766666664444444-------|

Chorus : (4x)
G|-----------------------------------|
D|-----------------------------------|
A|--------------222222222222---------|
E|--222222000000---------------------|

Post-chorus : (2x)
G|---------------------------------------------------------|
D|---------------------------------------------------------|
A|--------6666666-------4444444----------------------------|
E|--444444-------4444444-------777777766666664444444-------|

Verse : (2x)
G|---------------------------------------------------------|
D|---------------------------------------------------------|
A|--------6666666-------4444444----------------------------|
E|--444444-------4444444-------777777766666664444444-------|

Chorus : (4x)
G|-----------------------------------|
D|-----------------------------------|
A|--------------222222222222---------|
E|--222222000000---------------------|

Bridge : (the first part is just guitar, so only 1x)
G|---------------------------------------------------------|
D|---------------------------------------------------------|
A|---------6-6--6--------4-4--4----------------------------|
E|--4-4--4--------4-4--4--------7-7--7-6-6--6-4------------|

Chris screaming his lungs out-part : (2x)
G|---------------------------------------------------------|
D|---------------------------------------------------------|
A|--------6666666-------4444444----------------------------|
E|--444444-------4444444-------777777766666664444444-------|

Chorus : (4x)
G|-----------------------------------|
D|-----------------------------------|
A|--------------222222222222---------|
E|--222222000000---------------------|



Outro: (2x)
G|---------------------------------------------------------|
D|---------------------------------------------------------|
A|--------6666666-------4444444----------------------------|
E|--444444-------4444444-------77777776666666444444424~----|
Suggest correction
Give kudos to tab author, rate the tab!
1 2 3 4 5
comments
print report bad tab
guest
You may want to rate the tab now too:
select rating
Wanna post a correction for this tab? Suggest correction