Oops, an error
Loading. Please wait.

Get Out Of My Face Tab

774 views 1 this week
no commentswrite comment
1 2 3 4 5
2 more votes to show rating
add to favorites
launch autoscroll
font size
0
reset
how to read this tab
guitar tuner
Autoscroll
slow
fast
+/-
esc
set tempo
stop
Help us to improve Ultimate-Guitar.com Take our survey!
×
Author
The flatliners
GET OUT OF MY FACE

Intro

E---------11---11--------11---11--------11---11-------9----9-----|
B---------12---12--------11---11--------12---12-------9----9-----|
G---------13---13--------12---12--------13---13-------10---10----|
D---------13---13--------13---13--------13---13-------11---11----|
A----11---11---11--------13---13---11---11---11-------11---11----|
E---------x----x----11---11---11--------x----x----9---9----9-----|


E--------7---7-/-6---6---6--------11---11--------11---11------11-11-11-11-11--11-----|
B--------7---7-/-6---6---6--[------12---12--------12---12-]---[--12-12-12-12-12------|
G--------8---8-/-7---7---7--[------13---13--------13---13-]---[--13-13-13-13-13------|
D--------9---9-/-8---8---8--[------13---13--------13---13-]---[--13-13-13-13-13------|
A--------9---9-/-8---8---8--[-11---11---11---11---11---11-]---[--11-11-11-11-11------|
E----7---7---7-/-6---6---6--[------x----x---------x----x--]---[--x--x--x--x--x-------|

LEAD INTRO (x1) [second guitar] - played during SKA INTRO's 2ND time. (check song for exact timing)

E----11---12---11---14---11-----------------------11---------------------|
B-----------------------------14---12---11--h12---12---11-11-11-11---12--|
G------------------------------------------------------11-11-11-11---13--|
D-----------------------------------------------------(d)(u)(d)(u)-------|
A------------------------------------------------------------------------|alternating picking]
E------------------------------------------------------------------------|

E------------------------------------------------------------------------------11-11-11-11-11----|
B----11--h12---12---11-11-11-11------------------------------------------------12-12-12-12-12----|
G--------------13---11-11-11-11------------------------------------------------13-13-13-13-13----|
D------------------(d)(u)(d)(u)---14---13---11------------------11-------------13-13-13-13-13----|
A------------------------------------------------14---13---14--------14---13---11-11-11-11-11----|
E------------------------------------------------------------------------------x--x--x--x--x-----|

PRE-VERSE (x1)

picking: d    d  u    u    u    u d    d  u    u    u    u d    d  u    u    u
E--------11---11-11---11---11---x-11---11-11---11---11---x-11---11-11---11---11----|
B--------12---12-12---12---12---x-11---11-11---11---11---x-12---12-12---12---12----|
G--------13---13-13---13---13---x-12---12-12---12---12---x-13---13-13---13---13----|
D--------13---13-13---13---13---x-13---13-13---13---13---x-13---13-13---13---13----|
A--------11---11-11---11---11---x-13---13-13---13---13---x-11---11-11---11---11----|
E--------x----x--x----x----x----x-11---11-11---11---11---x-x----x--x----x----x-----|

picking: u d   d  u    u    u    u d   d u   u   u   u d   d u   u   u
E--------x-9---9--9----9----9----x-7---7-7---7---7---x-6---6-6---6---6----|
B--------x-9---9--9----9----9----x-7---7-7---7---7---x-6---6-6---6---6----|
G--------x-10--10-10---10---10---x-8---8-8---8---8---x-7---7-7---7---7----|
D--------x-11--11-11---11---11---x-9---9-9---9---9---x-8---8-8---8---8----|
A--------x-11--11-11---11---11---x-9---9-9---9---9---x-8---8-8---8---8----|
E--------x-9---9--9----9----9----x-7---7-7---7---7---x-6---6-6---6---6----|

picking: u d    d  u    u    u    u d    d  u    u    u
E--------x-11---11-11---11---11---x-11---11-11---11---11----|
B--------x-12---12-12---12---12---x-12---12-12---12---12----|
G--------x-13---13-13---13---13---x-13---13-13---13---13----|
D--------x-13---13-13---13---13---x-13---13-13---13---13----|
A--------x-11---11-11---11---11---x-11---11-11---11---11----|
E--------x-x----x--x----x----x----x-x----x--x----x----x-----|

VERSE - same picking, rhythm and order as pre-verse

                                [variation from pre-verse]
                         picking: d    d  u  d  u  d  u  d  u  d  u  d  u    d
E----11---11---11---9----7---6--[-11---11-11-11-11-11-11-11-11-11-11-11-11---11----]
B----12---11---12---9----7---6--[-12---12-12-12-12-12-12-12-12-12-12-12-12---12----]
G----13---12---13---10---8---7--[-13---13-13-13-13-13-13-13-13-13-13-13-13---13----]
D----13---13---13---11---9---8--[-13---13-13-13-13-13-13-13-13-13-13-13-13---13----]
A----11---13---11---11---9---8--[-11---11-11-11-11-11-11-11-11-11-11-11-11---11----]
E----x----11---x----9----7---6--[-x----x--x--x--x--x--x--x--x--x--x--x--x----x-----]

CHORUS (x4) - same picking pattern as pre-verse and verse

E----9----7---7---7----|
B----9----7---7---7----|
G----11---9---8---8----|
D----11---9---9---9----|
A----9----7---9---9----|
E----x----x---7---7----|

ENDING - same picking, rhythm and order as verse

				[variation from verse]
			 picking: d    d  u  d  u  d  u  d  u  d    d    d
E----11---11---11---9----7---6--[-11---11-11-11-11-11-11-11-11-11---11---11----]
B----12---11---12---9----7---6--[-12---12-12-12-12-12-12-12-12-12---11---12----]
G----13---12---13---10---8---7--[-13---13-13-13-13-13-13-13-13-13---11---13----]
D----13---13---13---11---9---8--[-13---13-13-13-13-13-13-13-13-13---11---13----]
A----11---13---11---11---9---8--[-11---11-11-11-11-11-11-11-11-11---11---11----]
E----x----11---x----9----7---6--[-x----x--x--x--x--x--x--x--x--x----x----x-----]


Song Order:

SKA INTRO x2 [LEAD INTRO X1]
PRE-VERSE X1
VERSE     X4
CHORUS    X4
PRE-VERSE X1
VERSE     X3
CHORUS    X4
SKA INTRO X2 [LEAD INTRO X1]
PRE-VERSE X2
CHORUS    X4
VERSE     X1
ENDING    X1
Suggest correction
Give kudos to tab author, rate the tab!
1 2 3 4 5
comments
print report bad tab
guest
You may want to rate the tab now too:
select rating
Wanna post a correction for this tab? Suggest correction