Oops, an error
Loading. Please wait.

Hal Johnson Smokes Cigarettes Tab

2,217 views 1 this week
1 commentread comment
1 2 3 4 5
3 more votes to show rating
add to favorites
launch autoscroll
font size
0
reset
how to read this tab
guitar tuner
Autoscroll
slow
fast
+/-
esc
set tempo
stop
Help us to improve Ultimate-Guitar.com Take our survey!
×
Author
So here's my third tab. Also by The Flatliners, and off The Great Awake. I didn't tab it 
out.. To be honest, I got lazy. But I figured this was a key chunk of the song, so 
maybe tab the rest out, who knows!
(And I am aware there are 2 guitars, and playing two different riffs, but I tabbed this 
for one.)

Standard Tuning: E A D G B e
Legend: S. = Strum Count/Timing (1/8th time, 1/16th time)
  ^I dunno man.. you'll find out when you play it.

Intro
|----------------|----------------|
|----------------|----------------|
|--7--11---------|--7--11---------|
|--7--11--9-7-5--|--7--11--9-7-5--|
|--5--9---9-7-5--|--5--9---9-7-5--|
|---------7-5-3--|---------7-5-3--|
S. 16 16  8 8 16    16 16  8 8 16
                                  Pre-Verse
|---------------------------------|----------|
|---------------------------------|----------|
|-7--11---------------------------|----------|
|-7--11--9-7-5-2-7-/4-5-4-7-/4-5-4|-5x-9x-7x-|
|-5--9---9-7-5-4-7-/4-5-4-7-/4-5-4|-5x-9x-7x-|
|--------7-5-3-4-5-/2-3-2-5-/2-3-2|-3x-7x-5x-|
S.16 16  8 8 8 8 16 - 8 8 16 - 8 8  8  8  16

VERSE
|----------------|--------------------------------|
|----------------|--------------------------------|
|--7-------------|--7-----------------------------|
|--7--9---9-7-5--|--7--9---9-7-5-4-7-/2-5-4-7-/4-5|
|--5--9---9-7-5--|--5--9---9-7-5-4-7-/4-5-4-7-/4-5|
|-----7---7-5-3--|-----7---7-5-3-2-5-/4-3-2-5-/2-3|
S. 16 16  8 8 16    16 16  8 8 8 8 16 - 8 8 16 - 8

Chorus
|----------------|----------------|--Strum---|
|----------------|----------------|---Once---|
|--7--11---------|--7--11---------|----------|
|--7--11--9-7-5--|--7--11--9-7-5--|--7--5----|
|--5--9---9-7-5--|--5--9---9-7-5--|--7--5----|
|---------7-5-3--|---------7-5-3--|--5--3----|
S. 16 16  8 8 16    16 16  8 8 16    16 16
Suggest correction
Give kudos to tab author, rate the tab!
1 2 3 4 5
comments
print report bad tab
1 comment total.
0 reply
MarkAlmighty93 10 Jun 18, 2013 01:33 PM

Anyway we can get the bridge and ourtro?

guest
You may want to rate the tab now too:
select rating
Wanna post a correction for this tab? Suggest correction