Oops, an error
Loading. Please wait.

Liver Alone Tab

2,649 views 1 this week
no commentswrite comment
1 2 3 4 5
please rate
add to favorites
launch autoscroll
font size
0
reset
how to read this tab
guitar tuner
Autoscroll
slow
fast
+/-
esc
set tempo
stop
Help us to improve Ultimate-Guitar.com Take our survey!
×
Author
Difficulty
novice
Artist: The Flatliners
Song: Liver Alone



e|------------------------------------------------6---2---6---2--------------|
B|------------------------------------------------6---2---6---2--------------|
G|-6-----------6---------------6-----------6------6---3---6---3--------------|
D|-6-----------6-----------4---6---4---8---6------8---4---8---4---6----------|
A|-4----/12----4----/12----4---4---4---8---4------8---4---8---4---6----------|
E|-------------------------2-------2---6----------6---2---6---2---4----------|
                                                                                       

  (Just stop and smell)
e|---------------------------------------------------------------------------|
B|-6----9----6----9----------------------------------------------------------|
G|-6----10---6----10-----------------6--------------6------------------------|
D|-6----10---6----10----8----3---4---6----6-----4---6---6--------------------|
A|-4----8----4----8-----8----3---4---4----6-----4---4---6--------------------|
E|----------------------6----1---2--------4-----2-------4--------------------|



e|---------------------------------------------------------------------------|
B|-6----9----6----9----------------------------------------------------------|
G|-6----10---6----10-------------6-------6-----------------------------------|
D|-6----10---6----10-----4---8---6---4---6---6-------------------------------|
A|-4----8----4----8------4---8---4---4---4---6-------------------------------|
E|-----------------------2---6-------2-------4-------------------------------|


  (Get up, get up, get up)
e|---------------------------------------------------------------------------|
B|---------------------------------------------------------------------------|
G|-----6-----------6-----------6---------------------------------------------|
D|-4---6---6---4---6---8---4---6---6---8----4----7---------------------------|
A|-4---4---6---4---4---8---4---4---6---8----4----7---------------------------|
E|-2-------4---2-------6---2-------4---6----2---/5---------------------------|


e|---------------------------------------------------------------------------|
B|---------------------------------------------------------------------------|
G|---------------------------------------------------------------------------|
D|-------------3-3----------------3-3----6--8--4-----------------------------|
A|-444444444444-4-----000000000000-0-----6--8--4-----------------------------|
E|---------------------------------------4--6--2-----------------------------|
      (muted)            (muted)

e|---------------------------------------------------------------------------|
B|---------------------------------------------------------------------------|
G|---------------------------------------------------------------------------|
D|------------------6-8-6------------------------6-8-6-------6--8--4---------|
A|-444444444444-6-8-------8-6---000000000000-6-8-------8-6---6--8--4---------|
E|-----------------------------------------------------------4--6--2---------|
                           


  (Poison diluted by the sea)
e|---------------------------------------------------------------------------|
B|---------------------------------------------------------------------------|
G|-6---6---8---10--11--10----------------------------------------------------|
D|---------------------------------------------------------------------------|
A|-4---4---6---8---9---8-----------------------------------------------------|
E|---------------------------------------------------------------------------|


e|---------------------------------------------------------------------------|
B|---------------------------------------------------------------------------|
G|-----6-----------6-----------6---------------------------------------------|
D|-4---6---6---4---6---8---4---6---6---8----4----7---------------------------|
A|-4---4---6---4---4---8---4---4---6---8----4----7---------------------------|
E|-2-------4---2-------6---2-------4---6----2---/5---------------------------|


e|---------------------------------------------------------------------------|
B|---------------------------------------------------------------------------|
G|---------------------------------------------------------------------------|
D|------------------6-8-6------------------------6-8b------------------------|
A|-444444444444-6-8-------8-6---000000000000-6-8-----------------------------|
E|---------------------------------------------------------------------------|
Suggest correction
Give kudos to tab author, rate the tab!
1 2 3 4 5
comments
print report bad tab
guest
You may want to rate the tab now too:
select rating
Wanna post a correction for this tab? Suggest correction