Oops, an error
Loading. Please wait.

Monumental Bass Tab

735 views 6 this week
no commentswrite comment
1 2 3 4 5
2 more votes to show rating
add to favorites
launch autoscroll
font size
0
reset
guitar tuner
Autoscroll
slow
fast
+/-
esc
set tempo
stop
Help us to improve Ultimate-Guitar.com Take our survey!
×
Author
-----------------------------------------------------------------------------
                      Monumental - The Flatliners
-----------------------------------------------------------------------------
Tabbed By: Fabio BlenderBR
 - Give your rating and help others users to find the best versions of the songs -

 - Intro:
G|----------------|
D|----------------|
A|-6--------------|
E|----3--1--------|


 - Verse:
(Ever since I pulled over, I've been looking for you in the strangest places...)
G|---------------------------------------------------------------------|
D|---------------------------------------------------------------------|
A|-6-6-6-6-6-6-6-6-----------------6-6-6-6-6-6-6-6---------------------|
E|-----------------6-6-6-6-6-6-6-6-----------------6-6-6-6-6-6-6-6-----|


(check every car window in the parking lot, Swallowing these ashes whole...)
G|-----------------------------------------------------------|
D|-----------------------------------------------------------|
A|-3-3-3-3---------6-6-6-6-6-6-6-6-3-3-3-3---------6-6-6-6---|
E|---------3-3-3-3-------------------------3-3-3-3-----------|


 - Chorus:
(You'd think I've got it all 'til tires start to crawl...)
G|----------------------------------------------------------------------|
D|----------------------------------------------------------------------|
A|-16/6-6-6-6---------6-6-6-6---------6-6-6-6---------------------------|
E|------------6-6-6-6---------3-3-3-3---------6-6-6-6-3-3-3-3-1-1-1-1---|


 - Verse 2:
(Getting high in a borrowed car, Listening to the songs that got me this far...)
G|-----------------------|
D|-----------------------|
A|-6-------6-------------|
E|-----6-------6---------|


(Put on a pair of sunglasses that turn February gray into...)
G|-----------------------------------------------------------------8---|
D|---------------------------------------------------------------8-----|
A|-3-3-3-3---------6-6-6-6-6-6-6-6-----------------6-6-6-6-6-6-6--6----|
E|---------3-3-3-3-----------------4-4-4-4-3-3-3-3---------------------|


 - Chorus:
(You'd think I've got it all 'til tires start to crawl...)
G|----------------------------------------------------------------------|
D|----------------------------------------------------------------------|
A|-16/6-6-6-6---------6-6-6-6---------6-6-6-6---------------------------|  2x
E|------------6-6-6-6---------3-3-3-3---------6-6-6-6-3-3-3-3-1-1-1-1---|


 - Bridge:
(Greet the world with a poker face, Through empty bottles in a haze...)
G|----------------------------------------------------|
D|----------------------------------------------------|
A|-6-6-6-6-6-6-6-6-0-6-6-6-6-6-6-6-6---------3-3-3-3--|    2x
E|-----------------------------------6-6-6-6----------|


(Catching my breath now seems as useless as airplane conversations....)
G|---------------------------------------------------------------------|
D|---------------------------------------------------------------------|
A|-------------------------------------------------6-6-6-6-6-6-6-6-----|
E|-3-3-3-3-1-1-1-1-3-3-3-3-1-1-1-1-4-4-4-4-3-3-3-3---------------------|


 - Chorus:
(You'd think I've got it all 'til tires start to crawl...)
G|----------------------------------------------------------------------|
D|----------------------------------------------------------------------|
A|-16/6-6-6-6---------6-6-6-6---------6-6-6-6---------------------------|  2x
E|------------6-6-6-6---------3-3-3-3---------6-6-6-6-3-3-3-3-1-1-1-1---|


 - Ending:
(Our skin is peeling from the searing steel surrounding us)
G|-----------------------------------------------------------------------|
D|-----------------------------------------------------------------------|
A|---------------------------------6-6-6-6--6-6-6-6--6-6-6-6--6-6-6-6----|
E|-3-3-3-3-1-1-1-1-4-4-4-4-3-3-3-3------------------------------------6--|
Suggest correction
Give kudos to tab author, rate the tab!
1 2 3 4 5
comments
print report bad tab
guest
You may want to rate the tab now too:
select rating
Wanna post a correction for this tab? Suggest correction