Oops, an error
Loading. Please wait.

You Guys Want One Of These Tab

version 1
version 1

Whole song

Interactive

668 views 1 this week
no commentswrite comment
1 2 3 4 5
please rate
add to favorites
launch autoscroll
font size
0
reset
how to read this tab
guitar tuner
Tab Pro tools
  • play this tab
  • loop segment
  • change instrument
  • show fretboard
  • metronome
Autoscroll
slow
fast
+/-
esc
set tempo
stop
Contributor
-------------------------------------------------------------------------------
The Flatliners
Album: The Great Awake
Song: You Guys Want One of these?
-------------------------------------------------------------------------------


Transcribed by Shaun Amos

Intro/Verse
e|----------------------------------|
B|----------------------------------|
G|----------------------------------|2
D|----------------------------------|X
A|-444444xxxxxxx777555555xxx777x777-|
E|-222222xxxxxxx555222222xxx555x555-|
   dudududududududududududududududu
   1+2+3+4+1+2+3+4+1+2+3+4+1+2+3+4+


Intro Riff
Guitar 1
e|----------------------------------|----------------------------------|
B|----------------------------------|----------------------------------|
G|----------------------------------|----------------------------------|2
D|----------------------------------|----------------------------------|X
A|-4-44--2-0-00--2-4-5-4-2-4-2-0-2--|-4-44--2-0-00--2-------0-2-0------|
E|----------------------------------|-----------------4-44--------4-2--|
   dudududududududududududududududu   dudududududududududududududududu
   1+2+3+4+1+2+3+4+1+2+3+4+1+2+3+4+   1+2+3+4+1+2+3+4+1+2+3+4+1+2+3+4+

**OR**
Guitar 1
e|----------------------------------|----------------------------------|
B|----------------------------------|----------------------------------|
G|----------------------------------|----------------------------------|2
D|----------------------------------|----------------------------------|X
A|----------------------------------|----------------------------------|
E|-9-99--7-5-55--7-9-10-9-7-9-7-5-7-|-9-99--7-5-55--7-4-44--5-7-5-4-2--|
   dudududududududududududududududu   dudududududududududududududududu
   1+2+3+4+1+2+3+4+1+2+3+4+1+2+3+4+   1+2+3+4+1+2+3+4+1+2+3+4+1+2+3+4+


Guitar 2 (feedback, then comes in on 4th bar only)
e|----------------------------------|
B|----------------------------------|
G|----------------------------------|
D|----------------------------------|
A|-7-77--5-4-44--5-2-22--4-5-4-2-0--|
E|-9-99--7-5-55--7-4-44--5-7-5-4-2--|
   dudududududududududududududududu
   1+2+3+4+1+2+3+4+1+2+3+4+1+2+3+4+


[Verse] w/ Intro Riff Guitar 1


Chorus
e|----------------------------------|
B|----------------------------------|
G|----------------------------------|
D|-7777777799999999-----------------|
A|-55555555777777774444444444444444-|
E|-----------------2222222222222222-|
   1+2+3+4+1+2+3+4+1+2+3+4+1+2+3+4+

e|----------------------------------|
B|----------------------------------|
G|----------------------------------|2
D|-7777777799999999-----------------|X
A|-5555555577777777444444447-779-99-|
E|-----------------222222225-557-77-|
   1+2+3+4+1+2+3+4+1+2+3+4+1+2+3+4+

e|------------------|
B|------------------|
G|------------------|
D|-77777777---------|
A|-555555557-772-22-|
E|---------5-550-00-|
   1+2+3+4+1+2+3+4+


Bridge
Guitar 1
e|------------------| |------------------|
B|------------------| |------------------|
G|------------------|3|------------------|
D|------------------|X|--------------7~--|
A|-24424~------4222-| |-24424--------5~--|
E|-02202~------2000-| |-02202---xxxxx5~--|
   1+2+3+4+1+2+3+4+     1+2+3+4+1+2+3+4+


Guitar 2 (only on the 3rd and 4th bars)
e|------------------| |------------------|
B|------------------| |------------------|
G|-46646~------9444-| |-46646~-----------|
D|-24424~------7222-| |-24424~-------7~--|
A|------------------| |--------------5~--|
E|------------------| |---------xxxxx5~--|
   1+2+3+4+1+2+3+4+     1+2+3+4+1+2+3+4+


Guitar 1 and 2
e|------------------| |---------------------|
B|------------------| |---------------------|
G|------------------|3|---------------------|
D|------------------|X|--------------7~-----|
A|-24424~------4222-| |-24424--------5~-7~--|
E|-02202~------2000-| |-02202-----------5~--|
   1+2+3+4+1+2+3+4+     1+2+3+4+1+2+3+4+5..


Post-Bridge
e|----------------------------------|------------------|
B|----------------------------------|------------------|
G|----------------------------------|------------------|
D|-77777777777777777111111111111111-|------------------|
A|-555555555555555559-9999999999999-|-6666666677777777-|
E|----------------------------------|-4444444455555555-|
   1+2+3+4+1+2+3+4+1+2+3+4+1+2+3+4+   1+2+3+4+1+2+3+4+

e|----------------------------------|------------------|
B|----------------------------------|------------------|
G|----------------------------------|------------------|
D|-77777777777xxxxxx111111111111111-|------------------|
A|-555555555555xxxxx9-9999999999999-|-6~------7-7-7777-|
E|----------------------------------|-4~------5-5-5555-|
   1+2+3+4+1+2+3+4+1+2+3+4+1+2+3+4+   1+2+3+4+1+2+3+4+


[Chorus] w/Intro Riff 1 v1


[Verse]


Outro:
Intro Riff 1 v1
e|----------------------------------|----------------------------------|
B|----------------------------------|----------------------------------|
G|----------------------------------|----------------------------------|
D|----------------------------------|----------------------------------|
A|-4-44--2-0-00--2-4-5-4-2-4-2-0-2--|-4-44--2-0-00--2-------0-2-0------|
E|----------------------------------|-----------------4-44--------4-2--|
   dudududududududududududududududu   dudududududududududududududududu
   1+2+3+4+1+2+3+4+1+2+3+4+1+2+3+4+   1+2+3+4+1+2+3+4+1+2+3+4+1+2+3+4+


Intro Riff 1 v2 (with a different ending)
e|----------------------------------|----------------------------------|
B|----------------------------------|----------------------------------|
G|----------------------------------|----------------------------------|
D|----------------------------------|----------------------------------|
A|-4-44--2-0-00--2-4-5-4-2-4-2-0-2--|-4-44--2-0-00--2-------0-----7~\--|
E|----------------------------------|-----------------4-44--------5~\--|
   dudududududududududududududududu   dudududududududududududududududu
   1+2+3+4+1+2+3+4+1+2+3+4+1+2+3+4+   1+2+3+4+1+2+3+4+1+2+3+4+1+2+3+4+
comments
We did not receive enough feedback on this tab! Please rate:
print report bad tab
1 2 3 4 5
I want to post or [tab]
guest
You may want to rate the tab now too:
select rating
Please do not post tabs as comments. Select "correction" instead!