Oops, an error
Loading. Please wait.

Got You Where I Want You intro tab

version 1
version 1

Intro

Whole song

Interactive

6,848 views 3 this week
3 commentsread comments
1 2 3 4 5
x 3
add to favorites
×
Save as Personal and add changes to this tab that will be seen only by you. Learn more ›
×
You can save this tab as Personal to edit and correct it or add notes. All changes will be seen only by you. Learn more »
launch autoscroll
font size
0
reset
how to read this tab
guitar tuner
backing track
0:00
0:00
edit
Autoscroll
slow
fast
+/-
esc
set tempo
stop
here it is

standard tuning eadgbE

----------------------------------------------------------------------
----------------------------------------------------------------------
----------------------------------------------------------------------
--0---0---0---0-------------------------------------------------------
----4-------4---4h5-5-5-5-5-5-5-5-5-4-4-------------------------------
5-------5-------------------------------------------------------------


thats all i know sorry :>(

            
            
Suggest correction
Creating personal tab
Creating personal tab
You can edit any tab online and save it as your Personal.

You can edit, replace or remove any tab part or add personal notes – all changes will be seen only by you.

Personal tabs can be accessed anytime from any device, even offline.
Learn more »
Give kudos to tab author, rate the tab!
1 2 3 4 5
comments
print report bad tab
3 comments total.
0 reply
Now baby 20 Aug 29, 2003 08:00 PM

This is in the wrong key. He's tuned down a half step first of all, and it's

e------------------------------
b------------------------------
g----------------------0-2-----
D----2-1-2----2-1-2----0-2-----
A----------------------0-0-----
E--0-------0-------------------
hammeron
Then the chorus is just E and A

0 reply
bigjustin12 10 Feb 16, 2006 06:32 AM

not accurate at all, keep trying

0 reply
af2w131f 20 Apr 07, 2006 04:31 AM

Doesn't get any worse than this...

guest
Wanna post a correction for this tab? Suggest correction