Oops, an error
Loading. Please wait.

Kanashikute Yarikirenai Chords

31 views 12 this week
no commentswrite comment
1 2 3 4 5
2 more votes to show rating
add to favorites
launch autoscroll
font size
0
reset
transpose
0
reset
display chords
guitar tuner
Autoscroll
slow
fast
+/-
esc
set tempo
stop
Help us to improve Ultimate-Guitar.com Take our survey!
×
Author
Difficulty
Capo
intermediate
1st fret
[Intro]
e|-----3\5--3--0-----------|--0------3-0-------------|
B|---------------3----0-3--|-------1-----1-----------|
G|------------------0------|-----0-------------------|
D|-------------------------|-------------------------|
A|-------------------------|--3----------------0-----|
E|--0------------3---------|---------------0-3-------|

e|--3\5--3--0--------------|----------0--------------|
B|------------3----0-3-----|--1-----1----------------|
G|---------------0---------|------0------------------|
D|-------------------------|----2--------------------|
A|-------------------------|--3----------------------|
E|------------3------------|-------------------------|


[Verse]
F       G               C
Mune ni shimiru sora no kagayaki
Am      G     C      Am     G    C
Kyou mo tooku nagame namida wo nagasu

[Chorus]
C    Em     F      C    C      F   Em  G
Kanashikute kanashikute totemo yarikirenai
     C    Em   F        C  Am   Em   G   C
Kono yarusenai MOYAMOYA wo dareka ni tsuge you ka


F      G              C
Shiroi kumo wa nagare nagarete
Am      G       C       Am     G      C
Kyou mo yume wa motsure wabishiku yureru

[Chorus]
C     Em    F      C    C      F   Em  G
Kanashikute kanashikute totemo yarikirenai
     C     Em  F         C  Am    Em  G      C
Kono kagirinai munashisa no sukui wa nai darou ka


e|-----3\5--3--0-----------|--0------3-0-------------|
B|---------------3----0-3--|-------1-----1-----------|
G|------------------0------|-----0-------------------|
D|-------------------------|-------------------------|
A|-------------------------|--3----------------0-----|
E|--0------------3---------|---------------0-3-------|

e|--3\5--3--0--------------|----------0--------------|
B|------------3----0-3-----|--1-----1----------------|
G|---------------0---------|------0------------------|
D|-------------------------|----2--------------------|
A|-------------------------|--3----------------------|
E|------------3------------|-------------------------|


F     G                 C
Fukai mori no midori ni dakare
Am      G       C      Am    G       C
Kyou mo kaze no uta ni shimijimi nageku

C     Em    F      C    C      F   Em  G
Kanashikute kanashikute totemo yarikirenai
     C    G    F         C  Am   Em   G           C
Kono moetagiru kurushisa wa ashita mo tsudzuku no ka


[Outro]
C Am Em G C
Suggest correction
Give kudos to tab author, rate the tab!
1 2 3 4 5
comments
print report bad tab
guest
You may want to rate the tab now too:
select rating
Wanna post a correction for this tab? Suggest correction