Oops, an error
Loading. Please wait.

Seating Subject To Availability Tab

version 2
version 2

Whole song

69 views 1 this week
no commentswrite comment
1 2 3 4 5
please rate
add to favorites
launch autoscroll
font size
0
reset
how to read this tab
guitar tuner
Tab Pro tools
  • play this tab
  • loop segment
  • change instrument
  • show fretboard
  • metronome
×
Best way to learn
"Seating Subject To Availability"
Autoscroll
slow
fast
+/-
esc
set tempo
stop
Contributor
Difficulty
intermediate
Band: The Forecast
Album: Late Night Conversations
Track: #1 - Seating Subject To Availability

  Intro - Guitar 1                    (2x) Riff A
e|-----------------------------------|-----------------------|
B|-----------------------------------|-----------------------|
G|-9999999999999999-9999999999999999-|-7-7/9---7-7/9---7-7/9-|
D|-xxxxxxxxxxxxxxxx-6666666666666666-|-x-x/x-9-x-x/x-9-x-x/x-|
A|-7777777777777777-7777777777777777-|-5-5/7-x-5-5/7-x-5-5/7-|
E|-----------------------------------|-------7-------7-------|
 |Guitar 2                           |(2x)
e|-----------------------------------|-----------------------|
B|-----------------------------------|-----------------------|
G|------------------9999999999999999-|-7-7/9---7-7/9---7-7/9-|
D|------------------6666666666666666-|-x-x/x-9-x-x/x-9-x-x/x-|
A|-----------------------------------|-5-5/7-x-5-5/7-x-5-5/7-|
E|-----------------------------------|-------7-------7-------|

  Guitar 1
e|-----------------------------------|
B|-----------------------------------|
G|-9999999999999999-9999999999999999-|
D|-xxxxxxxxxxxxxxxx-xxxxxxxxxxxxxxxx-|-RIFF A 2x
A|-7777777777777777-7777777777777777-|
E|-----------------------------------|
 |Guitar 2
e|---------------------------------------------------|
B|---------------------------------------------------|
G|-9999999999999999/12121212121212121212121212121212-|
D|-6666666666666666/-9-9-9-9-9-9-9-9-9-9-9-9-9-9-9-9-|-RIFF A 2x
A|---------------------------------------------------|
E|---------------------------------------------------|

  Guitar 1
e|-----------------------------------|
B|-----------------------------------|
G|-9999999999999999-9999999999999999-|
D|-xxxxxxxxxxxxxxxx-xxxxxxxxxxxxxxxx-|-RIFF A 2x
A|-7777777777777777-7777777777777777-|
E|-----------------------------------|
 |Guitar 2
e|------------------------------------------------------|
B|------------------------------------------------------|
G|-9999999999999999/1212121212121212/151515151515151515-|
D|-6666666666666666/-9-9-9-9-9-9-9-9/121212121212121212-|-RIFF A 2x
A|------------------------------------------------------|
E|------------------------------------------------------|

  Verse 1 - Guitar 1
e|---------------------------------------------------------------|
B|---------------------------------------------------------------|
G|-77777777777777-66666666666666-4~444444444444--4~4444444444444-|
D|-99999999999999-77777777777777-5~555555555555--5~5555555555555-|
A|-99999999999999-77777777777777-5~555555555555--5~5555555555555-|
E|---------------------------------------------------------------|
 |Guitar 2                                                       |
e|---------------------------------------------------------------|
B|---------------------------------------------------------------|
G|---------------------------------------------------------------|
D|---------------------------------------------------------------|
A|---------------------------------------------------------------|
E|---------------------------------------------------------------|
  "Lay down, let's start a family"
  Guitar 1 (4x)
e|---------------------------------------------------------------|
B|---------------------------------------------------------------|
G|-77777777777777-66666666666666-4~444444444444--2~2222222222222-|
D|-99999999999999-77777777777777-5~555555555555--0~0000000000000-|
A|-99999999999999-77777777777777-5~555555555555--0~0000000000000-|
E|---------------------------------------------------------------|
 |Guitar 2 (4x)
e|--------------------------------------------------------------------|
B|--------------------------------------------------------------------|
G|----------------------------------------------77~7777/1111~11111111-|
D|-99999999999999-77777777777777-5~555555555555-xx~xxxx/-x-x~-x-x-x-x-|
A|-99999999999999-77777777777777-5~555555555555-55~5555/-9-9~-9-9-9-9-|
E|-77777777777777-55555555555555-3~333333333333-----------------------|
  "Lay my fears, and my failures"

  Chorus - Guitar 1
e|--------------------------------------------------------0~~~~~~0-00-|
B|--------------------------------------------------------0~~~~~~0-00-|
G|------------------4~44-4-4-4-4-444----------------------x------x-xx-|
D|-5~55-5-5-5-5-555-4~44-4-4-4-4-444-5~55-5-5-5-5-555-2~2~~~2222-2-22-|
A|-5~55-5-5-5-5-555-2~22-2-2-2-2-222-5~55-5-5-5-5-555-2~2~~~2222-2-22-|
E|-3~33-3-3-3-3-333------------------3~33-3-3-3-3-333-0~0~~~0000-0-00-|
 |Guitar 2
e|-------------------------------------------------------------------------0~
B|-------------------------------------------------------------------------0~
G|-7~7777777777777-7/11~11111111111111111111111111-11\7-77777777777777-----x~
D|-x~xxxxxxxxxxxxx-x/-x~-x-x-x-x-x-x-x-x-x-x-x-x-x--x\x-xxxxxxxxxxxxxx-2~2~~~
A|-5~5555555555555-5/-9~-9-9-9-9-9-9-9-9-9-9-9-9-9--9\5-55555555555555-2~2~~~
E|---------------------------------------------------------------------0~0~~~
  "Weighed down by the fears of our fathers..."

  Post Chorus - Guitar 1 (2x)
e|----------------|
B|----------------|
G|----------------|
D|-2~2-2~22222222-|
A|-2~2-2~22222222-|
E|-0~0-0~00000000-|
 |Guitar 2 (2x)
e|-----------------|
B|-----------------|
G|-9~9999999999999-|
D|-x~xxxxxxxxxxxxx-|
A|-7~7777777777777-|
E|-----------------|
  "...IS!...WHAT!...MOVES!...US!..."

  Verse
  Chorus
  Post-Chorus

  Bridge - Guitar 1 (8x)                    End On
e|-----------------------------------------|-------|
B|-----------------------------------------|-------|
G|-----------------------------------------|-------|
D|-77777-7777777/1111111111-11111111111111-|-77777-|
A|-55555-5555555/-9-9-9-9-9--9-9-9-9-9-9-9-|-55555-|
E|-33333-3333333/-7-7-7-7-7--7-7-7-7-7-7-7-|-33333-|
 |Guitar 2 (The Last 4 Times)   End On
e|-----------------------------|-------|
B|-----------------------------|-------|
G|-----------------------------|-------|
D|-----7~--7~--------11~--11~--|-77777-|
A|-5~5---5~--5~5/9~9~---9~---9~|-55555-|
E|-----------------------------|-------|


Leave Any Comments And Ratings. Follow me on YouTube, Twitter, Tumblr and Instagram and 
Kik me all at HRchoni.
comments
We did not receive enough feedback on this tab! Please rate:
print report bad tab
1 2 3 4 5
I want to post or [tab]
guest
You may want to rate the tab now too:
select rating
Please do not post tabs as comments. Select "correction" instead!