Oops, an error
Loading. Please wait.

West Coast bass

656 views 1 this week
no commentswrite comment
1 2 3 4 5
3 more votes to show rating
add to favorites
×
Save as Personal and add changes to this tab that will be seen only by you. Learn more ›
×
You can save this tab as Personal to edit and correct it or add notes. All changes will be seen only by you. Learn more »
launch autoscroll
font size
0
reset
guitar tuner
edit
Autoscroll
slow
fast
+/-
esc
set tempo
stop
Difficulty
Intro
Repeat Till Verse
G-----------------------------------------------|
D-----------------------------------------------|
A-----------------------------------------------|
E--33-33-33-3-33-33-----------------------------|

Verse Starts Around (22 secounds)
G----------------------------------------------|
D----------------------------------------------|
A-22-22-22-2-22-22-2-33-3-33-3-33--------------|
E---------------------------------4/5-2--------|
Repeat twice on the last on don't slide the 4/5

Repeat the intro from 50 secs to about 1:01.
Then repeat the verse three times and slide on the last one.

Chorus

G-----------------------------------------------------------|
D----------------------5------------------------------------|
A-22222222----------7---6--4--------------33333333-22222222-|
E----------55555555----------5--44444444--------------------|
Repeat Chorus Twice.

2nd Verse/Break down
G---------------------------------------------------------|
D--------------5------------------------------------------|
A--2--------7----6--4-------3-----------------------------|
E----4/5-2------------5--4--------------------------------|
Repeat Twice.

Chorus

G-----------------------------------------------------------|
D---------------------5-------------------------------------|
A-22222222----------7---6--4--------------33333333-22222222-|
E----------55555555----------5--44444444--------------------|
Repeat Chorus four times.

Ending verse/break down
G---------------------------------------------------------|
D--------------5------------------------------------------|
A--2--------7----6--4-------3-----------------------------|
E----4/5-2------------5--4--------------------------------|
Repeat twice.

Listen to the song it's great.It will help with the timing.
This is my first tab sorry if it's sloppy. let me know if there is anything I 
could do to clean it up.
I hope my count is right let me know if you see anything.

            
            
Suggest correction
Creating personal tab
Creating personal tab
You can edit any tab online and save it as your Personal.

You can edit, replace or remove any tab part or add personal notes – all changes will be seen only by you.

Personal tabs can be accessed anytime from any device, even offline.
Learn more »
Give kudos to tab author, rate the tab!
1 2 3 4 5
comments
print report bad tab
guest
Wanna post a correction for this tab? Suggest correction