Oops, an error
Loading. Please wait.

Rockin Is Ma Business Bass Tab

5,135 views 6 this week
1 commentread comment
1 2 3 4 5
x 6
add to favorites
launch autoscroll
font size
0
reset
guitar tuner
Autoscroll
slow
fast
+/-
esc
set tempo
stop
Help us to improve Ultimate-Guitar.com Take our survey!
×
Author
-------------------------------------------------------------------------------
  Rockin' is ma business by The Four Horsemen
-------------------------------------------------------------------------------

Tabbed by:roaddawg07
email:roaddawg07@yahoo.com

This is my first tab so be gentle.




Tuning:standard 


intro
                 X4
guitar X 4  q q q q q q q q    q q q q q q q      
G|--------|------------------|---------------|
D|--------|------------------|---------------|
A|--------|------------------|---------------|
E|--------|0-3-0-5-0-3-5-0-0-|-0-3-5-0-5-3-0-| 



verse
 |-------------------X2--------------------------------|                                       
  e e e e e e e e e e e e e e e e  q q q q q q q q q q
G|--------------------------------|-------------------|
D|--------------------------------|-------------------|
A|--------------------------------|-------------------|
E|0-0-0-0-0-0-0-0-0-0-0-0-0-0-0-0-|0-3-0-5-0-3-5-0-0-3|


  e e e e e e e e e e e e e e e e  q q q q q q q q q 
G|--------------------------------|-------------------|
D|--------------------------------|-------------------|
A|0-0-0-0-0-0-0-0-0-0-0-0-0-0-0-0-|0-3-0-5-0-3-5-0-0-3|
E|--------------------------------|-------------------| 

  e e e e e e e e e e e e e e e e  q q q q q q q q q
G|--------------------------------|-----------------|
D|--------------------------------|-----------------|
A|--------------------------------|-----------------|
E|0-0-0-0-0-0-0-0-0-0-0-0-0-0-0-0-|0-3-0-5-0-3-5-0-0|


chorus
  e e e e e e e e e e e e e e e e  h   h   
G|--------------------------------|--------|
D|--------------------------------|--------|
A|--------------------------------|--------|
E|-7-7-7-7-7-7-7-7-7-7-7-7-7-7-7-7|5---3---|

       X4
  q q q q q q q q 
G|----------------|
D|----------------|
A|----------------|
E|0-3-0-5-3-5-0-0-|

 Repeat:verse

 Repeat:chorus

Bridge/solo

  q q q q q q q q q q q q q q q q 
G|-----------------|-------------||
D|-----------------|-------------|
A|-----------------|-------------|
E|0-3-0-5-0-3-5-0-0|0-3-5-0-5-3-0|



 |----------------X4------------------------------|
  q q q q q q q q e e e e e e e e e  e e e e e e e   
G|---------------|--------------------------------|
D|---------------|--------------------------------|
A|---------------|--------------------------------|
E|0-3-0-5-0-5-3-0|0-0-0-0-0-0-0-0-0-0-0-0-0-0-0-0-|


  |---------------X2------------------------------|
  q q q q q q q q e e e e e e e e e e e e e e e e 
G|---------------|--------------------------------|
D|---------------|--------------------------------|
A|0-3-0-5-0-5-3-0|--------------------------------|
E|---------------|--------------------------------|


 |---X4--------|
  q q q q q q q 
G|-------------|
D|-------------|
A|-------------|
E|0-3-5-0-5-3-0|


Repeat:Verse
Repeat:Chorus

Outro

 |-------X4--------|-----X4--------|             
  q q q q q q q q q e e e e e e e e
G|-----------------|---------------|
D|-----------------|---------------|
A|-----------------|---------------|
E|0-3-0-5-0-3-5-0-0|0-0-0-0-0-0-0-0|

 |-------X2--------|
  q q q q q q q q q 
G|-----------------|
D|-----------------|
A|-----------------|
E|0-3-0-5-0-3-5-0-0|

Suggest correction
comments
print report bad tab
1 comment total.
0 reply
willqx4 10 Jan 08, 2015 11:52 AM

Perfect - thanks!

guest
You may want to rate the tab now too:
select rating
Wanna post a correction for this tab? Suggest correction