Oops, an error
Loading. Please wait.

I Fell bass

16 views 1 this week
no commentswrite comment
1 2 3 4 5
3 more votes to show rating
add to favorites
×
Save as Personal and add changes to this tab that will be seen only by you. Learn more ›
×
You can save this tab as Personal to edit and correct it or add notes. All changes will be seen only by you. Learn more »
launch autoscroll
font size
0
reset
guitar tuner
edit
Autoscroll
slow
fast
+/-
esc
set tempo
stop
Author
Difficulty
Tabbed by: 6METAL6BASSIST6
E-mail: petergriffinav@gmail.com

Tuning: 1/4 step up.

G|----------------------------------------------------6-----------|
D|----------------------------------------------------------------|
A|------------------------------------------------4-------4---5---|
E|----------------------------------------------------------------|

G|----------------------------------------------------6-----------|
D|----------------------------------------------------------------|
A|--------5-------4-----------2-------------------4-------4---5---|
E|----------------------------------------------------------------|

G|----------------------------------------------------6-----------|
D|------------------------------------------------------------4---|
A|--------5-------4-----------2-------------------4-------4-------|
E|----------------------------------------------------------------|

G|----------------------------------------------------------------|
D|------------4---4-----------4---4-----------4---4-----------4---|
A|----------------------------------------------------------------|
E|----------------------------------------------------------------|

0:15

G|----------------------------------------------------------------|
D|4-----------4---4-----------4---4-----------4---4---4-------4---|
A|----------------------------------------------------------------|
E|----------------------------------------------------------------|

G|----------------------------------------------------------------|
D|----------------------------------------------------------------|
A|2-----------2---2-----------2---2-----------2---2---2-------2---|
E|----------------------------------------------------------------|

G|----------------------------------------------------------------|
D|4-----------4---4-----------4---7-----------7---7---7-------7---|
A|----------------------------------------------------------------|
E|----------------------------------------------------------------|

G|----------------------------------------------------------------|
D|----------------------------------------------------------------|
A|5-----------5---5---5-------5---2-----------2---2---2-------2---|
E|----------------------------------------------------------------|

0:30

G|----------------------------------------------------------------|
D|----------------2-----------2---1-----------1---1-----------1---|
A|4-----------4---------------------------------------------------|
E|----------------------------------------------------------------|

G|----------------------------------------------------------------|
D|1-----------1---1---1-------1-/-6-----------6---6-----------6---|
A|----------------------------------------------------------------|
E|----------------------------------------------------------------|

G|----------------------------------------------------------------|
D|----------------------------------------------------------------|
A|4-----------4---4-----------4---4-----------4---4---4-------4---|
E|----------------------------------------------------------------|

G|--------------------------------|
D|--------------------------------|
A|4-----------4---4---4-------4---|
E|--------------------------------|

G|----------------------------------------------------------------|
D|4---------------4---------------4-----------4-------------------|
A|----------------------------------------------------------------|
E|----------------------------------------------------------------|

0:45

G|----------------------------------------------------------------|
D|4-----------4---4---------------4-----------4---4---4-------4---|
A|----------------------------------------------------------------|
E|----------------------------------------------------------------|

G|----------------------------------------------------------------|
D|--------------------------------2-----------2---2---2-------2-/-|
A|2-----------2---2-----------2-----------------------------------|
E|----------------------------------------------------------------|

0:53

G|----------------------------------------------------------------|
D|7-------\-----------------------7-------------------------------|
A|------------5-----------7-------------------5-----------7-------|
E|----------------------------------------------------------------|

G|----------------------------------------------------------------|
D|7-------------------------------7-------------------------------|
A|------------5-----------7-------------------5-----------7-\-----|
E|----------------------------------------------------------------|

G|----------------------------------------------------------------|
D|--------------------------------2-----------2---2-----------2---|
A|2-----------2---2-----------2-----------------------------------|
E|----------------------------------------------------------------|

G|----------------------------------------------------------------|
D|4-----------4---4-----------4---4-----------4---4-----------4---|
A|----------------------------------------------------------------|
E|----------------------------------------------------------------|

1:07

G|----------------------------------------------------6-----------|
D|----------------------------------------------------------------|
A|------------------------------------------------4-------4---5---|
E|----------------------------------------------------------------|

G|----------------------------------------------------6-----------|
D|----------------------------------------------------------------|
A|--------5-------4-----------2-------------------4-------4---5---|
E|----------------------------------------------------------------|

G|----------------------------------------------------6-----------|
D|------------------------------------------------------------4---|
A|--------5-------4-----------2-------------------4-------4-------|
E|----------------------------------------------------------------|

G|----------------------------------------------------------------|
D|------------4---4-----------4---4-----------4---4-----------4---|
A|----------------------------------------------------------------|
E|----------------------------------------------------------------|

1:22

G|----------------------------------------------------------------|
D|4-----------4---4-----------4---4-----------4---4---4-------4---|
A|----------------------------------------------------------------|
E|----------------------------------------------------------------|

G|----------------------------------------------------------------|
D|----------------------------------------------------------------|
A|2-----------2---2-----------2---2-----------2---2-----------2---|
E|----------------------------------------------------------------|

G|----------------------------------------------------------------|
D|4-----------4---4-----------4---7-----------7---7---7-------7---|
A|----------------------------------------------------------------|
E|----------------------------------------------------------------|

G|----------------------------------------------------------------|
D|----------------------------------------------------------------|
A|5-----------5---5---5-------5---2-----------2---2-----------2---|
E|----------------------------------------------------------------|

1:37

G|----------------------------------------------------------------|
D|----------------2-----------2---1-----------1---1-----------1---|
A|4-----------4---------------------------------------------------|
E|----------------------------------------------------------------|

G|----------------------------------------------------------------|
D|1-----------1---1---1-------1-/-6-----------6---6-----------6---|
A|----------------------------------------------------------------|
E|----------------------------------------------------------------|

G|----------------------------------------------------------------|
D|----------------------------------------------------------------|
A|4-----------4---4-----------4---4-----------4---4-----------4---|
E|----------------------------------------------------------------|

G|--------------------------------|
D|--------------------------------|
A|4-----------4---4---4-------4---|
E|--------------------------------|

G|----------------------------------------------------------------|
D|4-----------4---4---------------4-----------4-------------------|
A|----------------------------------------------------------------|
E|----------------------------------------------------------------|

1:53

G|----------------------------------------------------------------|
D|4-----------4---4-----------4---4-----------4---4---4-------4---|
A|----------------------------------------------------------------|
E|----------------------------------------------------------------|

G|----------------------------------------------------------------|
D|--------------------------------2-----------2---2---2-------2-/-|
A|2-----------2---2-----------2-----------------------------------|
E|----------------------------------------------------------------|

2:00

G|----------------------------------------------------------------|
D|7-------\-----------------------7-------------------------------|
A|------------5-----------7-------------------5-----------7-------|
E|----------------------------------------------------------------|

G|----------------------------------------------------------------|
D|7-------------------------------7-------------------------------|
A|------------5-----------7-------------------5-----------7-\-----|
E|----------------------------------------------------------------|

G|----------------------------------------------------------------|
D|--------------------------------2-----------2---2-----------2---|
A|2-----------2---2-----------2-----------------------------------|
E|----------------------------------------------------------------|

G|----------------------------------------------------------------|
D|4-----------4---4-----------4---4-----------4---4-----------4---|
A|----------------------------------------------------------------|
E|----------------------------------------------------------------|

2:15

G|----------------------------------------------------6-----------|
D|----------------------------------------------------------------|
A|------------------------------------------------4-------4---5---|
E|----------------------------------------------------------------|

Until fadeout.

G|----------------------------------------------------6-----------|
D|----------------------------------------------------------------|
A|--------5-------4-----------2-------------------4-------4---5---|
E|----------------------------------------------------------------|

            
            
Suggest correction
Creating personal tab
Creating personal tab
You can edit any tab online and save it as your Personal.

You can edit, replace or remove any tab part or add personal notes – all changes will be seen only by you.

Personal tabs can be accessed anytime from any device, even offline.
Learn more »
Give kudos to tab author, rate the tab!
1 2 3 4 5
comments
print report bad tab
guest
You may want to rate the tab now too:
select rating
Wanna post a correction for this tab? Suggest correction