Oops, an error
Loading. Please wait.

Big Girls Dont Cry bass

913 views 9 this week
no commentswrite comment
1 2 3 4 5
2 more votes to show rating
add to favorites
×
Save as Personal and add changes to this tab that will be seen only by you. Learn more ›
×
You can save this tab as Personal to edit and correct it or add notes. All changes will be seen only by you. Learn more »
launch autoscroll
font size
0
reset
guitar tuner
edit
Autoscroll
slow
fast
+/-
esc
set tempo
stop
-------------------------------------------------------------------------------
                        Big Girls Don't Cry - The Four Seasons
-------------------------------------------------------------------------------
Tabbed by: CorporalCrunch
Tuning: Standard


Verse 1: "Big girls don't cry..."
G|--------------------------|-------------------|
D|-5--5------7--7-------4-5-|-------------2-4-5-|
A|------7--7------5-5-7-----|-----2---3-5-------|
E|--------------------------|-3-5---3-----------|
              x8

Bridge: "My girl said goodbye..."
G|-----------------|-----------------|-----------------|
D|-----6-6-9-9-6-9-|-----------------|-----4-4-7-7-4-7-|
A|-7-7-------------|-----4-4-7-7-4-7-|-5-5-------------|
E|-----------------|-5-5-------------|-----------------|
          x2               x2                 x2

Chorus: "Big girls don't cry"
G|----------------|
D|-5--------------|
A|-----5---3---5--|
E|----------------|


Verse 2: "Big girls don't cry..."
G|--------------------------|-------------------|
D|-5--5------7--7-------4-5-|-------------2-4-5-|
A|------7--7------5-5-7-----|-----2---3-5-------|
E|--------------------------|-3-5---3-----------|
             x9

Bridge: "Shame on you, your mama said..."
G|-----------------|-----------------|-----------------|
D|-----6-6-9-9-6-9-|-----------------|-----4-4-7-7-4-7-|
A|-7-7-------------|-----4-4-7-7-4-7-|-5-5-------------|
E|-----------------|-5-5-------------|-----------------|
          x2               x2                 x2

Chorus: "Big girls don't cry"
G|----------------|
D|-5--------------|
A|-----5---3---5--|
E|----------------|


Verse 3: "Big girls don't cry..."
G|--------------------------|
D|-5--5------7--7-------4-5-|
A|------7--7------5-5-7-----|
E|--------------------------|
             x4

Ending Chorus: "Big girls don't cry"                    
G|----------------|----------------|----------------|
D|----------------|----------------|-5--------------|
A|----------------|----------------|-----5---3---5--|
E|----------------|----------------|----------------|
                                           x3                        

===============================================================================

            
            
Suggest correction
Creating personal tab
Creating personal tab
You can edit any tab online and save it as your Personal.

You can edit, replace or remove any tab part or add personal notes – all changes will be seen only by you.

Personal tabs can be accessed anytime from any device, even offline.
Learn more »
Give kudos to tab author, rate the tab!
1 2 3 4 5
comments
print report bad tab
guest
You may want to rate the tab now too:
select rating
Wanna post a correction for this tab? Suggest correction