Oops, an error
Loading. Please wait.

December 1963 bass

version 2
version 2

Whole song

Interactive

786 views 3 this week
no commentswrite comment
1 2 3 4 5
3 more votes to show rating
add to favorites
×
Save as Personal and add changes to this tab that will be seen only by you. Learn more ›
×
You can save this tab as Personal to edit and correct it or add notes. All changes will be seen only by you. Learn more »
launch autoscroll
font size
0
reset
guitar tuner
edit
Autoscroll
slow
fast
+/-
esc
set tempo
stop
Difficulty
Standard tuning, Watch the transitions. It has a tendancy to skip the first couple 
notes, then repeat.
IT's close, but not perfect.


December back in '63. What a very...
---------------------------|
------------3-4-4--4-4-6---|
-----3-4--6----------------|
-4-6-----------------------| repeat


Hold on "Oh I, got a funny fealing..."

continue at "when she walks..."

------------------------------------------------------------|
->8--11--------8-8--6-8----------6-6-----6-6----------------|
--------11---------8---6-->-9--------4-------4--------------|
------------------------------------------------------------|

..."Oh what a night"
--------------------------|
------------3-4-4--4-4-6--|
-----3-4--6---------------|
-4-6----------------------| repeat, once more after "Sweet surrender what a night" then...

-------   ------------------------------------8-8-6-----------|
-------   ------------------------------------------8---------|
------4   1-1--------1-1--------1--4-6------------------------|
-4-6---   ------0-2-4------0-2-4------------------------------| 2x

-------------------------------------------------------------|
-------------------------------------------------------------|
----6-6---6-6---8-8---8-8---9-9---9-9--------improvise-------|
-------------------------------------------------------------|


Repeat

            
            
Suggest correction
Creating personal tab
Creating personal tab
You can edit any tab online and save it as your Personal.

You can edit, replace or remove any tab part or add personal notes – all changes will be seen only by you.

Personal tabs can be accessed anytime from any device, even offline.
Learn more »
Give kudos to tab author, rate the tab!
1 2 3 4 5
comments
print report bad tab
guest
Wanna post a correction for this tab? Suggest correction