Oops, an error
Loading. Please wait.

Lets Hang On bass

433 views 1 this week
no commentswrite comment
1 2 3 4 5
3 more votes to show rating
add to favorites
×
Save as Personal and add changes to this tab that will be seen only by you. Learn more ›
×
You can save this tab as Personal to edit and correct it or add notes. All changes will be seen only by you. Learn more »
launch autoscroll
font size
0
reset
guitar tuner
edit
Autoscroll
slow
fast
+/-
esc
set tempo
stop
Author
Difficulty
-------------------------------------------------------------------------------
                          Let's Hang On - The Four Seasons
-------------------------------------------------------------------------------
Tabbed by: CorporalCrunch
Tuning: Standard


Intro: "There ain't no good in our goodbye-ing..."
G|-------------------------------------------|
D|-5---------2--1-------------2----7---------|
A|------2----------5--4--3--------------5----|
E|-------------------------------------------|
         *guitar*
G|-----------------|---------------|
D|-----------------|---5-3---------|
A|-----------------|-------5-3-----|
E|-----------------|-3---------6-3-|
                            x2

Chorus: "Let's Hang on..."
G|---------------|---------------|---------------|-------------|---------------|-------------|
D|---5-3---------|---5-3---------|-4-2-----------|-------------|-4-2-----------|-7-----------|
A|-------5-3-----|-------5-3-----|-----5-3-2-----|-7-5-4-------|-----5-3-2-----|---9-7-----5-|
E|-3---------6-3-|-3---------6-2-|-----------5-5-|-------6-7-7-|-----------5-5-|-------9-7---|
        x2
G|-----------------|-------------|
D|---4-------------|-5-3---------|
A|-5---5-4-2-------|-----5-3-----|
E|-----------5-3-3-|---------6-3-|
                           x2

Verse 1: "You say you're gonna go and call it quits..."
G|---------------------------------------------------------------------------------------|
D|-5-5-5--5-4--4-4-4--4----------------4-2-----------------------------------------------|
A|--------------------------------4-5------5-3-2-------------4-5--5--5--7-----------5-5--|
E|----------------------5--5-5-5-----------------5-5--5-5-5---------------5--5-5-5-------|

G|-------------|
D|-4-2---------|
A|-----5-3-2---|
E|-----------3-|

"That little chip of diamond on your hand..."
G|---------------------------------------------------------------------------------------|
D|-5-5-5--5-4--4-4-4--4----------------4-2-----------------------------------------------|
A|--------------------------------4-5------5-3-2-------------4-5--5--5--7-----------5-5--|
E|----------------------5--5-5-5-----------------5-5--5-5-5---------------5--5-5-5-------|

G|---------------|
D|-4-2-----------|
A|-----5-3-2-----|
E|-----------3-3-|
"Baby (don't you go)..."
G|--------------------------------------------------------|
D|-5-5-5-5-5-5-5-5-5-5-5-5-5-5-5-5-8-8-8-8-8-8-5-4--------|
A|-------------------------------------------------7-5-5--|
E|--------------------------------------------------------|


Chorus: "Let's Hang on..."
G|---------------|---------------|---------------|-------------|---------------|-------------|
D|---5-3---------|---5-3---------|-4-2-----------|-------------|-4-2-----------|-7-----------|
A|-------5-3-----|-------5-3-----|-----5-3-2-----|-7-5-4-------|-----5-3-2-----|---9-7-----5-|
E|-3---------6-3-|-3---------6-2-|-----------5-5-|-------6-7-7-|-----------5-5-|-------9-7---|
        x2
G|-----------------|-------------|
D|---4-------------|-5-3---------|
A|-5---5-4-2-------|-----5-3-----|
E|-----------5-3-3-|---------6-3-|
                           x2

Interlude: "aaaah"
G|---------------------------------------------------|
D|-5-5-5--5-4--4-4-4--4----------------4-2-----------|
A|--------------------------------4-5------5-3-2-----|
E|----------------------5--5-5-5-----------------3-3-|
                           x2


Verse 2: "There isn't anything I wouldn't do..."
G|---------------------------------------------------------------------------------------|
D|-5-5-5--5-4--4-4-4--4----------------4-2-----------------------------------------------|
A|--------------------------------4-5------5-3-2-------------4-5--5--5--7-----------5-5--|
E|----------------------5--5-5-5-----------------5-5--5-5-5---------------5--5-5-5-------|

G|---------------|
D|-4-2-----------|
A|-----5-3-2-----|
E|-----------3-3-|

"You've got me cryin' dyin' at your door..."
G|---------------------------------------------------------------------------------------|
D|-5-5-5--5-4--4-4-4--4----------------4-2-----------------------------------------------|
A|--------------------------------4-5------5-3-2-------------4-5--5--5--7-----------5-5--|
E|----------------------5--5-5-5-----------------5-5--5-5-5---------------5--5-5-5-------|

G|---------------|
D|-4-2-----------|
A|-----5-3-2-----|
E|-----------3-3-|

"Baby (don't you go)..."
G|--------------------------------------------------------|
D|-5-5-5-5-5-5-5-5-5-5-5-5-5-5-5-5-8-8-8-8-8-8-5-4--------|
A|-------------------------------------------------7-5-5--|
E|--------------------------------------------------------|


Chorus: "Let's Hang on..."
G|---------------|---------------|---------------|-------------|---------------|-------------|
D|---5-3---------|---5-3---------|-4-2-----------|-------------|-4-2-----------|-7-----------|
A|-------5-3-----|-------5-3-----|-----5-3-2-----|-7-5-4-------|-----5-3-2-----|---9-7-----5-|
E|-3---------6-3-|-3---------6-2-|-----------5-5-|-------6-7-7-|-----------5-5-|-------9-7---|
        x2
G|-----------------|-------------|
D|---4-------------|-5-3---------|
A|-5---5-4-2-------|-----5-3-----|
E|-----------5-3-3-|---------6-3-|
                           x2

Final Chorus: "aaaah"
G|---------------------------------------------------|
D|-5-5-5--5-4--4-4-4--4----------------4-2-----------|
A|--------------------------------4-5------5-3-2-----|
E|----------------------5--5-5-5-----------------3-3-|
                           x3

=====================================================================================


            
            
Suggest correction
Creating personal tab
Creating personal tab
You can edit any tab online and save it as your Personal.

You can edit, replace or remove any tab part or add personal notes – all changes will be seen only by you.

Personal tabs can be accessed anytime from any device, even offline.
Learn more »
Give kudos to tab author, rate the tab!
1 2 3 4 5
comments
print report bad tab
guest
You may want to rate the tab now too:
select rating
Wanna post a correction for this tab? Suggest correction