Oops, an error
Loading. Please wait.

After All Chords

4,781 views 24 this week
no commentswrite comment
1 2 3 4 5
excellent!
x 4
add to favorites
launch autoscroll
font size
0
reset
transpose
0
reset
simplify chords
- display chords -
guitar tuner
Tab Pro tools
  • play this tab
  • loop segment
  • change instrument
  • show fretboard
  • metronome
Autoscroll
slow
fast
+/-
esc
set tempo
stop
Contributor
Difficulty
AFTER ALL - The Frank and Walters
tabbed by emmett.osullivan37@mail.dcu.ie
www.thefrankandwalters.ie
www.frankandwalters.net


CHORDS USED

E:    	0 2 2 1 0 0     Asus2:   	x 0 2 2 0 0
B7:   	x 2 1 2 0 2     F#m:		2 4 4 2 2 2
C:      x 3 2 0 1 0 

Intro
							 A A A A A A
e:|-2-4-0---2-4-0---2-4-----2-4------2-4-0---2-4-0---2-4-5-5-5-5-4-2|    
b:|---------------------2-------2-----------------------------------|
g:|-----------------------------------------------------------------|
d:|-----------------------------------------------------------------|
a:|-----------------------------------------------------------------|
e:|-----------------------------------------------------------------|
    
    E                A               B7              A
e:|-0---2-4-0----2-4-----2-4-----2-4-0---2-4-0---2-4-5---2-4-5---2-4|    
b:|------------------2-------2--------------------------------------|
g:|-----------------------------------------------------------------|
d:|-----------------------------------------------------------------|
a:|-----------------------------------------------------------------|
e:|-----------------------------------------------------------------|



E     Asus2         B7       Asus2
After all I really love you
E     Asus2               B7         Asus2
After all that we've been through
F#m	       B7
I know that we fight
        E                   Asus2
And our love gets pushed to the side
F#m      B7       E
Still it ends all right

E     Asus2        B7         Asus2
After all I really need you
E          Asus2            B7        Asus2
Don't know how I'd live without you
F#m          B7
Days they go by
           E               Asus2
And you're always there at my side
F#m      B7          E          B7
Girl I'm glad you're mine
 
          E
There are times I get distracted girl
       Asus2
By the ways and workings of this world
      F#m                   
Yet I think of you as my life's shrine
        B7
And I'm glad that I'm yours
	   E
and you're mine

E        Asus2             B7      Asus2
When I'm far from home and lonely
E     Asus2          B7      Asus2
And I think about my life
F#m           B7
I think about you
        E                  Asus2 
All the little things that you do
F#m     B7	    E       B7
And I'm glad you're mine


          E
There are times I get distracted girl
       Asus2
By the ways and workings of this world
      F#m
Yet I think of you as my life's shrine
        B7
And I'm glad that I'm yours
           Asus2         E               Asus2          B7 
and you're mi------------ine----ba--ba---baaaa--ba--ba--baaaaaaa

      E
ba ba baaaaaa ba ba ba ba ba ba
      Asus2
ba ba baaaaaa ba ba ba ba ba ba
      F#m
ba ba baaaaaa ba ba ba ba ba ba
      E
ba ba baaaaaa ba ba ba ba ba ba
      Asus2
ba ba baaaaaa ba ba ba ba ba ba
      F#m
ba ba baaaaaa ba ba ba ba ba ba
        B7
and I'm glad that after all you're 
        E
        mine  ba ba ba ba ba ba
      Asus2
ba ba baaaaaa ba ba ba ba ba ba
      F#m
ba ba baaaaaa ba ba ba ba ba ba
        B7		           C       E
and I'm glad that after all you're mi------ine
  
comments
print report bad tab
I want to post or [tab]
guest
You may want to rate the tab now too:
select rating
Please do not post tabs as comments. Select "correction" instead!