Oops, an error
Loading. Please wait.

Acid Jazz Singer Bass Tab

2,122 views 3 this week
1 commentread comment
1 2 3 4 5
please rate
add to favorites
launch autoscroll
font size
0
reset
guitar tuner
Tab Pro tools
  • play this tab
  • loop segment
  • change instrument
  • show fretboard
  • metronome
×
Best way to learn
"Acid Jazz Singer"
Autoscroll
slow
fast
+/-
esc
set tempo
stop
Contributor
-------------------------------------------------------------------------------
			     ACID JAZZ SINGER - The Fratellis
-------------------------------------------------------------------------------

Tabbed By : Dominic Clarke

Tuning: Standard

Listen to the song to get a feel for the rhythm.


Bass comes in at the beginning of Verse 2.

G|---------------------------------------------------------------------------|
D|---------------------------------------------------------------------------|
A|-----------------5--------------3-4-5-5-5-5-5-5-5-3------------------------|
E|---5-5-5-5-5-5-5---5-5-5-5-5-5-7--------------------5-5-5-5-5-5-5-5--------|

G|---------------------------------------------------------------------------|
D|---------------------------------------------------------------------------|
A|---------------------------4-4-4-4---------4-4-4-4-7-7-7-7-57-7-57-53------|
E|---5-5-5-5-5-5-5-5-2-2-2-2---------2-2-2-2---------------------------------|


Chorus

G|---------------------------------------------------------------------------|
D|---------------------------------------------------------------------------|
A|-----------------5--------------3-4-5-5-5-5-5-5-5-3------------------------|
E|---5-5-5-5-5-5-5---5-5-5-5-5-5-7--------------------5-5-5-5-5-5-5-5--------|

G|---------------------------------------------------------------------------|
D|---------------------------------------------------------------------------|
A|---7-7-7-7-7-7-7-7-5-5-5-5-5-5-5-----3---3-----3---------------------------|
E|----------------------------------5\---5\---5\---5\------------------------|


Verse 3

G|---------------------------------------------------------------------------|
D|---------------------------------------------------------------------------|
A|-----------------5--------------3-4-5-5-5-5-5-5-5-3------------------------|
E|---5-5-5-5-5-5-5---5-5-5-5-5-5-7--------------------5-5-5-5-5-5-5-5--------|

G|---------------------------------------------------------------------------|
D|---------------------------------------------------------------------------|
A|---------------------------4-4-4-4---------4-4-4-4-7-7-7-7-57-7-57-53------|
E|---5-5-5-5-5-5-5-5-2-2-2-2---------2-2-2-2---------------------------------|


Chorus

G|---------------------------------------------------------------------------|
D|---------------------------------------------------------------------------|
A|-----------------5--------------3-4-5-5-5-5-5-5-5-3------------------------|
E|---5-5-5-5-5-5-5---5-5-5-5-5-5-7--------------------5-5-5-5-5-5-5-5--------|

G|---------------------------------------------------------------------------|
D|---------------------------------------------------------------------------|
A|---7-7-7-7-7-7-7-7-5-5-5-5-5-5-5-5-----3---3-----3-------------------------|
E|-----------------------------------5\---5\---5\---5\-----------------------|


Guitar break 1

G|-----------3---------------------------------------------------------------|
D|-----1-3-5--5-3-1----------------------------------------------------------|
A|---3--------------------3---7-7-5-5-4-4-2-2-7-7-5-5-4-4-2-2-7-7-5-5-4-4-2-2|
E|--------------------5\---5\------------------------------------------------|

G|---------------------------------------------------------------------------|
D|---------------------------------------------------------------------------|
A|---------------------------------------------------------------------------|
E|---5-5-5-5-0-0-0-0-0-0-0-0-------------------------------------------------|


Chorus - Final

G|---------------------------------------------------------------------------|
D|---------------------------------------------------------------------------|
A|-----------------5--------------3-4-5-5-5-5-5-5-5-3------------------------|
E|---5-5-5-5-5-5-5---5-5-5-5-5-5-7--------------------5-5-5-5-5-5-5-5--------|

G|---------------------------------------------------------------------------|
D|---------------------------------------------------------------------------|
A|---7-7-7-7-7-7-7-7-5-5-5-5-5-5-5-5-7-7-7-7-7-7-7-7-5-5-5-5-5-5-5-5---------|
E|---------------------------------------------------------------------------|


Ending

G|---------------------------------------------------------------------------|
D|---------------------------------------------------------------------------|
A|---------3--repeat 16x until ----------3-----------------------------------|
E|---5-553-------------------5-5-5-5--3--------------------------------------|



| /  slide up
| \  slide down
| h  hammer-on
| p  pull-off
| ~  vibrato
| +  harmonic
| x  Mute note
===============================================================================
comments
We did not receive enough feedback on this tab! Please rate:
print report bad tab
1 2 3 4 5
1 comment total.
0 reply
tbate54 wrote on January 12 2014, 11:31 pm

Nice man! I reckon you've got it.

I want to post or [tab]
guest
You may want to rate the tab now too:
select rating
Please do not post tabs as comments. Select "correction" instead!