Oops, an error
Loading. Please wait.

Baby Fratelli Bass Tab

version 1
version 1

Whole song

Interactive

3,779 views 6 this week
7 commentsread comments
1 2 3 4 5
worth learning
x 6
add to favorites
launch autoscroll
font size
0
reset
guitar tuner
Tab Pro tools
  • play this tab
  • loop segment
  • change instrument
  • show fretboard
  • metronome
Autoscroll
slow
fast
+/-
esc
set tempo
stop
Contributor
Difficulty
 ---------------------------------------------------------------------------
	           BABY FRATELLI - The Fratellis
----------------------------------------------------------------------------

Tabbed By : lilwelshrocker
e-mail: welsh_boy_2k6@hotmail.co.uk

Tuning: Standard GDAE tuning.

This is a really fun tab. Hope you enjoy it.

Intro 0:08

G|-----------------------------------------| The tune follows the guitars rhythm so listen for
D|----------------| timing if you need to--|
A|------5-53-2-----------------------------|
E|3-33--------3-33-------------------------| x3

Verse, the same as the intro. 0:15. This is the main riff.

G|----------------------| Listen to the guitars rhythm if you need to for the
D|----------------------| timing.
A|------5-53-2----------|
E|3-33--------3-33| x13-|

Pre Chorus 0:44

G|-------|
D|-------|
A|-------|
E|3-3-3-3|

Chrous 0:46

G|-------------------------------------------------------------------|
D|-------------------------------------------------------------------|
A|5-5-55-55-55-55-55-55-2-2-22-22-22-22-5-7-8-9--99-8-7-5-55-4-3-2--5|
E|-------------------------------------------------------------------|
                                                                 x2

G|----------------| Only play this part the first time you play the chorus.
D|----------------|
A|55555555555555|
E|--------------|

Break 1:15
Verse 1:23 x16
Pre Chorus 1:55
Chorus 1:57 x2
Break 2:25

Bridge 2:37

G|------| Listen for the timing of the notes. G|--------| Play this after
D|5-7-10|                                     D|10-7-5--| you have played
A|------|                                     A|--------| the previous part.
E|------| x4                                  E|--------|

Break 3:00
Verse 3:09 x6
Pre Chorus 3:21
Chorus 3:23 x2

Outro 3:52

G|----------|
D|----------|
A|5--3--2--0|
E|----------|

Well thats it I think. I didn't have long to work it out but I hope that you like it and 
because like I said, it is a fun tab to play. If you would like to tell me your 
email me at:
welsh_boy_2k6@hotmail.co.uk
comments
print report bad tab
7 comments total. Showing first comments.
0 reply
ChampGuitarist wrote on April 19 2007, 03:42 pm

WKKKDDDD tab even tho i dont play bass lmao

0 reply
Seth Shadows wrote on May 31 2007, 09:20 pm

Good tab. 5*

0 reply
ptansani wrote on September 13 2008, 03:29 pm

what is this? the verse is right but then the chorus is COMPLETELY wrong. how does it have 5 stars!! and look at the first comment, y would u even comment champguitarist?? its pretty bad i gotta say

I want to post or [tab]
guest
You may want to rate the tab now too:
select rating
Please do not post tabs as comments. Select "correction" instead!