Oops, an error
Loading. Please wait.

Baby Fratelli ukulele

version 1
version 1

Whole song

Interactive

579 views 6 this week
no commentswrite comment
1 2 3 4 5
2 more votes to show rating
add to favorites
×
Save as Personal and add changes to this tab that will be seen only by you. Learn more ›
×
You can save this tab as Personal to edit and correct it or add notes. All changes will be seen only by you. Learn more »
launch autoscroll
font size
0
reset
transpose
0
reset
display chords
guitar tuner
edit
Autoscroll
slow
fast
+/-
esc
set tempo
stop
Strumming
There is no strumming pattern for this song yet. and get +5 IQ
Artist: The Fratellis            http://www.thefratellis.com/
Track: Baby Fratelli
Album: Costello Music
Tabber: Woodshed

INTRO riff

e|---------------------10--10--10---------------------------|
B|---------------------10--10--10---------------------------|
G|---4----4--4--x-x-x--11--11--11---------------------------|
D|---5----5--5--x-x-x--12--12--12---------------------------|
A|---5----5--5--x-x-x--12--12--12---------------------------|
E|---3----3--3--x-x-x--10--10--10---------------------------|

Repeat riff until chorus


VERSE 1

D      G      D            G
I said oh my, I don't know why

D          G             D           G
I was just busy watching everyone go by

D           G          D            G
Outside the shite bar, and you're a red car

D           G                   D               G
Me and your girlfriend and your sister with the big scar

D         G       D          G
I said oh Christ, I told you twice

D             G                  D                G
It's just not easy going through all these things thrice

D             G       D           G
What's this I wonder, you drive a bluebird

D          G                     D           G
You got no money for the petrol, that's what I heard


CHORUS

         C                                  G
And it's alright, she'll be sucking fingers all night

G G#          D                                 G
Wearing those shoes, oh any excuse to go to the gang fight

             C                             G
And oh she's alright, everybody says she's uptight

G G#        D
Sick in the head, first in the bed so easy to be Friday's nightmare


Intro Riff


VERSE 2

D         G   D              G
I said oh no, oh please just go

D          G                 D             G
You got no eyelids and sweet Ella loves me so

D          G       D              G
She got my number, though I can't stand her

D            G                 D       G
I can't help diggin her a hope I guess I wonder

D           G      D           G
And oh it's clear, you want me dear

D           G         D           G
It would be easier if I was never here

D           G      D             G
You got the money, and I got the reason,

D           G                  D            G
I'll stick around with you for just another season


       
CHORUS

         C                                  G
And it's alright, she'll be sucking fingers all night

G G#          D                                 G
Wearing those shoes, oh any excuse to go to the gang fight

             C                             G
And oh she's alright, everybody says she's uptight

G G#        D
Sick in the head, first in the bed so easy to be Friday's nightmare


MIDDLE 

C                   B
She's just getting along,

        Em
So don't tell me she's yours

          A
Oh please tell me I'm wrong again



e|-------------------------------------2--------------------------------|
B|-----------------1------------3-----------3-------3-------------------|
G|-------0----0--------------------2------------------------------------|
D|--------------------2--0----------------------------------------------|
A|----------2---3-------------------------------------------------------|
E|-----3----------------------------------------------------------------|
                        It's all in a day,


e|--------------------------------------2---3---------------------------|
B|-----------------1------------3--------------------3------------------|
G|-------0----0--------------------2------------------------------------|
D|--------------------2---0---------------------------------------------|
A|----------2---3-------------------------------------------------------|
E|-----3----------------------------------------------------------------|
                      So what can you say


e|-------------------------------------2--------------------------------|
B|-----------------1------------3-----------3---------------------------|
G|-------0----0--------------------2------------------------------------|
D|--------------------2--0----------------------------------------------|
A|----------2---3-------------------------------------------------------|
E|-----3----------------------------------------------------------------|
                    Just sleep in yer shoes


e|----------------------------------------------------------------------|
B|-----------------1------------3---------------------------------------|
G|-------0----0--------------------2------------------------------------|
D|--------------------2--0----------------------------------------------|
A|----------2---3-------------------------------------------------------|
E|-----3----------------------------------------------------------------|
                  With the windowbox blues


e|--------------7-----------------5-----10-----10-----------------------|
B|----------7---8-----------------5-----10-----10-----------------------|
G|-----9----7---9-----------------6-----11-----11-----------------------|
D|-----10---9---9-----------------7-----12-----10-----------------------|
A|-----10---9---7-----------------7-----12-----12-----------------------|
E|-----8----7---0-----------------5-----10-----10-----------------------|
   Any time you choose,        Oh yeah


Intro riff repeated


VERSE 3

D        G      D            G
She said oh my, I don't know why

D          G             D           G
I was just busy watching everyone go by

D           G          D            G
Outside the shite bar, and you're a red car

D           G                   D               G
Me and your girlfriend and your sister with the big scar


D           G       D          G
She said oh Christ, I told you twice

D             G                  D                G
It's just not easy going through all these things thrice

D             G       D           G
What's this I wonder, you drive a bluebird

D          G                     D            G
You got no money for the petrol, that's what I heard


CHORUS

         C                                  G
And it's alright, she'll be sucking fingers all night

G G#          D                                 G
Wearing those shoes, oh any excuse to go to the gang fight

             C                             G
And oh she's alright, everybody says she's uptight

G G#        D                                    D  C     B/G A  G
Sick in the head, first in the bed so easy to be Friday's wonder
Suggest correction
Creating personal tab
Creating personal tab
You can edit any tab online and save it as your Personal.

You can edit, replace or remove any tab part or add personal notes – all changes will be seen only by you.

Personal tabs can be accessed anytime from any device, even offline.
Learn more »
Give kudos to tab author, rate the tab!
1 2 3 4 5
comments
print report bad tab
guest
Wanna post a correction for this tab? Suggest correction