Oops, an error
Loading. Please wait.

Babydoll Tab

924 views 3 this week
no commentswrite comment
1 2 3 4 5
excellent!
x 5
add to favorites
launch autoscroll
font size
0
reset
how to read this tab
guitar tuner
Tab Pro tools
  • play this tab
  • loop segment
  • change instrument
  • show fretboard
  • metronome
×
Best way to learn
"Babydoll"
Autoscroll
slow
fast
+/-
esc
set tempo
stop
Contributor
Right so this is my first tab so be nice. when playing the sequence Fm, E D use the
higher Fm as it sounds nicer. this is how to play the sound in standard,

I know that when they play live they play with a capo on second but this is just a
easier way of playing for people who don't have one. The Chords may not be perfectly in line
with the words, they give a guess at way about the chord changes should be. I attempted 
the lead guitar, comments are welcome to try and improve

the tab. Cheers. ps Mind my spelling.


E-5--4--2--11--7--7--5--4--7----|
B-5--5--2--12--7--9--7--6--7----|
G-6--4--2--13--7--9--7--4--8----|
D-7--6--4--13--9--9--7--6--9----|
A-7--7--4--11--9--7--5--4--9----|
E-5--4--2------7-----------7----|
  A D/E Fm Fm Bm  E  D C#7 B


   A              D/E                      Fm
Babydoll do you believe they'll catch you when you fall
           Bm                             E    D  E
And when morning comes the sun is gonna shine
  A                      D/E                  Fm
Don't forget your minor keys your half lit cigarette
           Bm                                      E  D  E
Cause when morning comes god knows that you'll be mine

E-------5---9--9-7-5-------9---12-12-10-9-----5---9-9-7-5-----5---9-9-7-5------|
B-----5--5-- ------------10-10--------------7---7-----------7---7--------------|
G------------------------------------------------------------------------------|
D------------------------------------------------------------------------------|
A------------------------------------------------------------------------------|
E------------------------------------------------------------------------------|



E-----7---10-10-9-7-----7-----------------4---7-7-5-4-----4---7-7-5-4---------|
B---7---7-------------7---7-10-10-9-7---5---5-----------5---5-----------------|
G-----------------------------------------------------------------------------|
D-----------------------------------------------------------------------------|
A-----------------------------------------------------------------------------|
E-----------------------------------------------------------------------------|


           A    C#7
So let me in
              Fm         E           D
I'm ready to beg and to sing for my sins
                 Fm         E        D
Not leave it to chance and sweet coincidence
                    B                      E    D  E
Cause that's just crazy and you know it's true

E----5-7-9-7-5---5-7-9-7-5-----5-7-5-------5-7-5------------------------------|
B----------------------------7-------7---7-------7----------------------------|
G-----------------------------------------------------------------------------|
D-----------------------------------------------------------------------------|
A-----------------------------------------------------------------------------|
E-----------------------------------------------------------------------------|


E---------5-------------------------------------------------------------------|
B-----7-9---9-7---5-7-9-7-5-----5-7-5-------5-7-5-----------------------------|
G-----------------------------7-------7---7-------7---------------------------|
D-----------------------------------------------------------------------------|
A-----------------------------------------------------------------------------|
E-----------------------------------------------------------------------------|

E---------5-------------------------------------------------------------------|
B-----7-9---9-7---5-7-9-7-5-----5-7-5-------5-7-5-----------------------------|
G-----------------------------7-------7---7-------7---------------------------|
D-----------------------------------------------------------------------------|
A-----------------------------------------------------------------------------|
E-----------------------------------------------------------------------------|

E--4/5/7-5-5-5-7-4/5/7-5-5-5-7---9/10/12-10-10-10-12-9/10/12-10-10-10-12------|
B-----------------------------------------------------------------------------|
G-----------------------------------------------------------------------------|
D-----------------------------------------------------------------------------|
A-----------------------------------------------------------------------------|
E-----------------------------------------------------------------------------|


           A    D/E      Fm    C#7
Well they said you was long gone
         D                A
I just laughed and said alright
           D      E
Bring her home tonight
       A         D/E            Fm    C#7
And I heard you was graciously put on
         D          A           D               E             E  D
I just laughed and said good night guess it's alright


E-5-7-9-7-5-----5-7-5----------5----------------------------------------------|
B-------------9-------9----7-9---9-7----5-7-9-7-5-----5-7-5---------5---------|
G---------------------------------------------------7-------7---6-7---7-6-----|
D-----------------------------------------------------------------------------|
A-----------------------------------------------------------------------------|
E-----------------------------------------------------------------------------|

E-----------------------------------------------------------------------------|
B----5-7-5---5-7-9-7-5--------------------------------------------------------|
G--7-------7------------------------------------------------------------------|
D-----------------------------------------------------------------------------|
A-----------------------------------------------------------------------------|
E-----------------------------------------------------------------------------|

  A                   D/E                      Fm
Babydoll the men who hang like flowers in the hall
            Bm                        E    D  E
Are asking when your love is gonna show
  A                              D/E
And who knows why the love your need
             Fm
Will always pass you by
          Bm                                E       D  E
Well I heard it's true your love is gonna grow

           A   C#7                    Fm    E    D
So let me know cause I can stay or honey I can go
           Fm              E   D
Just to wherever you tell me so
                             Bm           E       D  E
And find my place there and there I'll stay

E-------9---12-12-10-9-----9---12-12-10-9-----5---9-9-7-5-----5---9-9-7-5------|
B-----10-10- ------------10-10--------------7---7-----------7---7--------------|
G------------------------------------------------------------------------------|
D------------------------------------------------------------------------------|
A------------------------------------------------------------------------------|
E------------------------------------------------------------------------------|



E-----7---10-10-9-7-----7-----------------4---7-7-5-4-----4---7-7-5-4---------|
B---7---7-------------7---7-10-10-9-7---5---5-----------5---5-----------------|
G-----------------------------------------------------------------------------|
D-----------------------------------------------------------------------------|
A-----------------------------------------------------------------------------|
E-----------------------------------------------------------------------------|

E-------9---12-12-10-9-----9---12-12-10-9-----5---9-9-7-5-----5---9-9-7-5------|
B-----10-10- ------------10-10--------------7---7-----------7---7--------------|
G------------------------------------------------------------------------------|
D------------------------------------------------------------------------------|
A------------------------------------------------------------------------------|
E------------------------------------------------------------------------------|



E-----7---10-10-9-7-----7---10-10-9-7-----------4---7-7-5-4-----4---7-7-5-4-----------|
B---7---7-------------7---7-------------------5---5-----------5---5-------------------|
G-------------------------------------------------------------------------------------|
D-------------------------------------------------------------------------------------|
A-------------------------------------------------------------------------------------|
E-------------------------------------------------------------------------------------|



            A D/E        Fm      C#7
Well they said you was burned out I just laughed
      D       A              D                E
And said come on she's not burned she's just gone
         A     D/E       Fm               C#7
And it took me too long till I found out
                D        A       D      E
Faces that you know the best oh well I guess
            A          D/E      Fm        C#7
And they laughed when you said you was leaving
            D        A               D            E
Everybody knows you well except for me can't you tell
          A                D/E         Fm         C#7
And you watched from the wings of the late show roses
            A      D          A       E
By you're feet of red all for me you said

E-5-7-9-7-5-----5-7-5----------5----------------------------------------------|
B-------------9-------9----7-9---9-7----5-7-9-7-5-----5-7-5---------5---------|
G---------------------------------------------------7-------7---6-7---7-6-----|
D-----------------------------------------------------------------------------|
A-----------------------------------------------------------------------------|
E-----------------------------------------------------------------------------|

E-----------------------------------------------------------------------------|
B----5-7-5---5-7-9-7-5--------------------------------------------------------|
G--7-------7------------------------------------------------------------------|
D-----------------------------------------------------------------------------|
A-----------------------------------------------------------------------------|
E-----------------------------------------------------------------------------|

Babydoll.........
A D/E Fm Bm E D E

E--5-7-9-7-5---------5-7-9-7-5----------5-7-9-7-5--------------------|
B------------9-7---------------9-7----------------7-5----------------|
G--------------------------------------------------------------------|
D--------------------------------------------------------------------|
A--------------------------------------------------------------------|
E--------------------------------------------------------------------|

-
E---------------------------------2-4-55--2-4-55--2-4-55--2-4-55---------------|
B---5--2-3-5-5--2-3-5-5--2-3-5-5-----------------------------------------------|
G------------------------------------------------------------------------------|
D------------------------------------------------------------------------------|
A------------------------------------------------------------------------------|
E------------------------------------------------------------------------------|

E------------------------------------------------------------------------------|
B-0-2-33--0-2-33--0-2-33--0-2-33--0-2-33--0-2-33--0-2-2/3-2/3-2/3-2/3-2/3-2/3--|
G------------------------------------------------------------------------------|
D------------------------------------------------------------------------------|
A------------------------------------------------------------------------------|
E------------------------------------------------------------------------------|
comments
print report bad tab
I want to post or [tab]
guest
You may want to rate the tab now too:
select rating
Please do not post tabs as comments. Select "correction" instead!