Oops, an error
Loading. Please wait.

Chelsea Dagger Bass Tab

version 1
version 1

Interactive

12,283 views 6 this week
3 commentsread comments
1 2 3 4 5
worth learning
x 4
add to favorites
launch autoscroll
font size
0
reset
guitar tuner
Autoscroll
slow
fast
+/-
esc
set tempo
stop
Help us to improve Ultimate-Guitar.com Take our survey!
×
Author
Difficulty
novice
----------------------------------------------------------------------------
			     Chelsea dagger - The frattellis
----------------------------------------------------------------------------

Tabbed By :olly 
e-mail: olliecolbeck@hotmail.co.uk

Tuning:Normal

The whole song is pretty basic im not too sure how it goes but this plays along with the guitar.

Intro

G|----------------------------------------------------------|
D|----------------------------------------------------------|
A|----------------------------------5-5-5-5-5-5-555-55-5-5-5|
E|--3-3-3-3-3-3-333-3-3-3-3-3-3-333-------------------------|

verse

G|------------------------------------------------------------|
D|------------------------------------------------------------|
A|--------------5-5-5-5-5-5-5-----------------7-7-7-7-5555555-|
E|3-3-3-3-3-3-3---------------8-8-8-8-7-7-7-7-----------------|

Bridge

           x2                      x2                      
G|----------------------|------------------------|  
D|o--------------------o|o----------------------o|      Repeat this twice
A|o--------------------o|o--5-5555-5555-555555--o|
E|--3-3333-3333-333333--|------------------------|

Chorus

           x3
G|----------------------|-------------------|
D|o--------------------o|-------------------|
A|o----------3-3--5-5--o|----------5-5-5-5--|
E|---3-3-3-3------------|--5-5-5-5----------|


| /  slide up
| \  slide down
| h  hammer-on
| p  pull-off
| ~  vibrato
| +  harmonic
| x  Mute note
===========================================================================
Suggest correction
What's this?
You can suggest a correction to this tab. Community and Mods will review your correction and vote to approve or reject it.
comments
print report bad tab
3 comments total.
0 reply
bassist792 228 wrote on October 15 2006, 01:42 pm

yeh sorry i forgot to put the chorus bit down were it goes doo do doo... it goes like this:

|-------------------------------------
|----------------------------5--------
|---------5-5/6/7-7/6/5-5/6/7-7/6/5---
|-------------------------------------


|-------------------------------------
|-------------------------------------
|----------------------------5--------
|---------5-5/6/7-7/6/5-5/6/7-7/6/5---

0 reply
bassist792 228 wrote on October 24 2006, 08:46 am

looking at the other tab myne sucks lol

0 reply
Bad Chord 13 wrote on January 22 2008, 02:58 pm

The intro,verse and bridge was wrong you got the G note right but D was E if listen to the other guitar you notice they
play the same notes though the whole song

guest
You may want to rate the tab now too:
select rating
Please do not post tabs as comments. Select "correction" instead!