Oops, an error
Loading. Please wait.

Chelsea Dagger Tab

version 1
version 1

Whole song

Interactive

52,647 views 12 this week
5 commentsread comments
1 2 3 4 5
worth learning
x 8
add to favorites
launch autoscroll
font size
0
reset
how to read this tab
guitar tuner
Autoscroll
slow
fast
+/-
esc
set tempo
stop
Help us to improve Ultimate-Guitar.com Take our survey!
×
Difficulty
novice
wooo my first tab..nobody has tabbed this yet and the fratellis tabs are lacking across 
whole net so i tabbed this, its probably wrong but...i dont care

intro
|-------------------------|
|-------------------------|
|-------------------------|
|-20-\-\-\-\-\-\-\-\-\-1--|
|-20-\-\-\-\-\-\-\-\-\-1--|
|-20-\-\-\-\-\-\-\-\-\-1--|

|-----------------|               |-----------------|
|-----------------|               |-----------------|
|-----------------|               |-7-777-777-77777-|
|-5-555-555-55555-| several times |-7-777-777-77777-|
|-5-555-555-55555-| then add:     |-5-555-555-55555-|
|-3-333-333-33333-|               |-----------------|

verse
    G        D        C    B     E
|------------------------------------|
|------------------------------------|
|----------777777777-5555-4444-99999-|
|-55555555-777777777-5555-4444-99999-|
|-55555555-555555555-3333-2222-77777-|
|-33333333---------------------------|

do doo again..
verse again

Chelsea, Chelsea I Believe...
   G     C    D
|-----------------|
|-----------------|
|-------5555-7777-|
|-5555--5555-7777-|
|-5555--3333-5555-|
|-3333------------|
I have seen jon playing open chords for the chelsea bit..so..u could do whatever..

ENJOY

FRATELLIS ROCK!!

Ethan
Suggest correction
What's this?
You can suggest a correction to this tab. Community and Mods will review your correction and vote to approve or reject it.
comments
print report bad tab
5 comments total. Showing first comments.
0 reply
stokesey 36 wrote on July 5 2006, 08:45 am

nice tab and ur bang on we need more fratellis tabs!!!!!! they're awesome, the best thing to come out of scotland since haggis!

0 reply
tamnud 80 wrote on August 2 2006, 07:06 am

easily the best fratellis song so far, great tab!

0 reply
goodsum 1,054 wrote on August 21 2006, 05:27 pm

this tab is only half there! theres more than this

guest
You may want to rate the tab now too:
select rating
Please do not post tabs as comments. Select "correction" instead!