Oops, an error
Loading. Please wait.

Chelsea Dagger Bass Tab

version 2
version 2

Interactive

68,890 views 123 this week
14 commentsread comments
1 2 3 4 5
x 39
add to favorites
launch autoscroll
font size
0
reset
guitar tuner
Autoscroll
slow
fast
+/-
esc
set tempo
stop
Help us to improve Ultimate-Guitar.com Take our survey!
×
Difficulty
intermediate
[Intro]
 (starts on the 4th bar)
G|-----------------|
D|--455555-45555---|
A|--------------5--|
E|---------------3-|

 [Intro Part 1]
G|---------------------------------|
D|o-------------------------------o|
A|o-------------------------------o| play this 2x (i know he adds fills but i
E|-3-3-3-3-3-3-3-3-3-3-3-3-3-3-3-3-|                 can't work them out)

 [Intro Part 2]
G|------------------------------------|
D|o----------------------------------o|
A|o-45-5-5-5-5-5-5-5-5-5-5-5-5-5-5-5-o| this just once
E|------------------------------------|

Then repeat Part 1 & 2 (once each) three more times

"Why you must be a girl with shoes like that......"

 [Verse]                                                 1.          2.
G|------------------------------------------------------|---7575----|---------|
D|o--------------------------------------------2-2-2-2-o|-------7---|---------|
A|o----------------------------3-3-3-3-2-2-2-2---------o|-5---------|-5555555-|
E|-3-3-3-3-3-3-3/5-5-5-5-5-5-5--------------------------|-----------|---------|

 "WOO!"
G|----------|
D|---9\-----|
A|----------|
E|----------|

"I was good...."

 [Chorus Part 1]
G|------------------|----------------|
D|-------------5----|------------5---|
A|--567-765-567-7\--|-567-765-567-7~-|
E|------------------|----------------|

"Gimmee gear, thankyou dear...."

 [Chorus Part 2]
G|------------------|-----------------|
D|------------------|-----------------|
A|-------------5----|------------5----|
E|--567-765-567-7\5-|-567-765-567-5~--|

[Intro Part 1]
[Intro Part 2]
[Verse]
"WOO!"
[Chorus 1 & 2]

 [Bridge]
             x2                          x2
G|--------------------------|--------------------------|
D|o------------------------o|o------------------------o|
A|o------------------------o|o-5-5555-5555-5555555555-o|
E|--3-3333-3333-3333333333--|--------------------------|

             x2
G|--------------------------|-7-7-77-7--7-7--777777-|
D|o-5-5555-5555-5555555555-o|---------------5-------|
A|o------------------------o|-----------------------|
E|--------------------------|-----------------------|

 [Outro]
          x3
G|-------------------|------------------|
D|o-----------------o|------------------| x2
A|o---------3-3-5-5-o|----------5555555-|
E|--3-3-3-3----------|--5-5-5-5---------|

[Intro Part 1]\
               >x2
[Intro Part 2]/

[End on]

G|-----|
D|-----|
A|-----|
E|--3--|



************************************

| /  Slide up
| \  Slide down
| ~  Vibrato 

************************************
Suggest correction
comments
print report bad tab
14 comments total. Showing first comments. show 1 bad comment
0 reply
skippy_moogoose 111 Sep 13, 2006 01:50 PM

seems pretty good tab, time 2 rate, gets 5 stars :D

0 reply
houston 10 Sep 29, 2006 07:16 PM

sweet as ****. nice one

guest
You may want to rate the tab now too:
select rating
Wanna post a correction for this tab? Suggest correction