Oops, an error
Loading. Please wait.

Chelsea Dagger bass

version 2
version 2

Interactive

75,253 views 183 this week
14 commentsread comments
1 2 3 4 5
x 44
add to favorites
×
Save as Personal and add changes to this tab that will be seen only by you. Learn more ›
×
You can save this tab as Personal to edit and correct it or add notes. All changes will be seen only by you. Learn more »
launch autoscroll
font size
0
reset
guitar tuner
edit
Autoscroll
slow
fast
+/-
esc
set tempo
stop
Author
Difficulty
Unregistered
intermediate
[Intro]
 (starts on the 4th bar)
G|-----------------|
D|--455555-45555---|
A|--------------5--|
E|---------------3-|

 [Intro Part 1]
G|---------------------------------|
D|o-------------------------------o|
A|o-------------------------------o| play this 2x (i know he adds fills but i
E|-3-3-3-3-3-3-3-3-3-3-3-3-3-3-3-3-|                 can't work them out)

 [Intro Part 2]
G|------------------------------------|
D|o----------------------------------o|
A|o-45-5-5-5-5-5-5-5-5-5-5-5-5-5-5-5-o| this just once
E|------------------------------------|

Then repeat Part 1 & 2 (once each) three more times

"Why you must be a girl with shoes like that......"

 [Verse]                                                 1.          2.
G|------------------------------------------------------|---7575----|---------|
D|o--------------------------------------------2-2-2-2-o|-------7---|---------|
A|o----------------------------3-3-3-3-2-2-2-2---------o|-5---------|-5555555-|
E|-3-3-3-3-3-3-3/5-5-5-5-5-5-5--------------------------|-----------|---------|

 "WOO!"
G|----------|
D|---9\-----|
A|----------|
E|----------|

"I was good...."

 [Chorus Part 1]
G|------------------|----------------|
D|-------------5----|------------5---|
A|--567-765-567-7\--|-567-765-567-7~-|
E|------------------|----------------|

"Gimmee gear, thankyou dear...."

 [Chorus Part 2]
G|------------------|-----------------|
D|------------------|-----------------|
A|-------------5----|------------5----|
E|--567-765-567-7\5-|-567-765-567-5~--|

[Intro Part 1]
[Intro Part 2]
[Verse]
"WOO!"
[Chorus 1 & 2]

 [Bridge]
             x2                          x2
G|--------------------------|--------------------------|
D|o------------------------o|o------------------------o|
A|o------------------------o|o-5-5555-5555-5555555555-o|
E|--3-3333-3333-3333333333--|--------------------------|

             x2
G|--------------------------|-7-7-77-7--7-7--777777-|
D|o-5-5555-5555-5555555555-o|---------------5-------|
A|o------------------------o|-----------------------|
E|--------------------------|-----------------------|

 [Outro]
          x3
G|-------------------|------------------|
D|o-----------------o|------------------| x2
A|o---------3-3-5-5-o|----------5555555-|
E|--3-3-3-3----------|--5-5-5-5---------|

[Intro Part 1]\
               >x2
[Intro Part 2]/

[End on]

G|-----|
D|-----|
A|-----|
E|--3--|



************************************

| /  Slide up
| \  Slide down
| ~  Vibrato 

************************************

            
            
Suggest correction
Creating personal tab
Creating personal tab
You can edit any tab online and save it as your Personal.

You can edit, replace or remove any tab part or add personal notes – all changes will be seen only by you.

Personal tabs can be accessed anytime from any device, even offline.
Learn more »
comments
print report bad tab
14 comments total. Showing first comments.
0 reply
skippy_moogoose 111 Sep 13, 2006 09:50 AM

seems pretty good tab, time 2 rate, gets 5 stars :D

0 reply
houston 10 Sep 29, 2006 03:16 PM

sweet as ****. nice one

+1 reply
blunder 507 Oct 15, 2006 08:49 AM

the fill in the intro is something like :
G|-----------------------|
D|------------5----5---5-|
A|-----------------------|
E|-33333333-3----3---3---|
i think

guest
Wanna post a correction for this tab? Suggest correction