Oops, an error
Loading. Please wait.

Chelsea Dagger Tab

version 2
version 2

Whole song

Interactive

155,445 views 267 this week
21 commentsread comments
1 2 3 4 5
x 65
add to favorites
launch autoscroll
font size
0
reset
how to read this tab
guitar tuner
Autoscroll
slow
fast
+/-
esc
set tempo
stop
Help us to improve Ultimate-Guitar.com Take our survey!
×
Author
-------------------------------------------------------------------------------
                             Chelsea Dagger - Fratellis
-------------------------------------------------------------------------------
Tabbed by: Aron S
Email: goodsum@hotmail.com

Tuning: Standard


[Intro]

e|---------------------------------------------------------------------|
B|---------------------------------------------------------------------|
G|---------------------------------------------------------7--7--7--7--|
D|-------------------------------------7-7-7-7-7-7-7-7-7-7-7--7--7--7--|
A|-5-5-5-5-5-5-5-5-5-5-5-5-5-5-5-5-5-5-5-5-5-5-5-5-5-5-5-5-5--5--5--5--|
E|-3-3-3-3-3-3-3-3-3-3-3-3-3-3-3-3-3-3---------------------------------|


[Pre-Verse]
    
e|--------------------|
B|--------------------|
G|-----------7--------|
D|--5--------7-(x16)--|
A|--5-(x16)--5--------|
E|--3-----------------|


[Verse]

e|---------------------------------------------------------------------------------------|
B|---------------------------------------------------------------------------------------|
G|------------------------------------------------------------------------9-9--9-x-7--7--|
D|--5-5-5-5-5-5-5-5-5-5-5-5-7-7-7-7-7-7-7-7-7-7-7-7-10-10-10-10-9-9-9-9-9-9-9--9-x-7--7--|
A|--5-5-5-5-5-5-5-5-5-5-5-5-7-7-7-7-7-7-7-7-7-7-7-7-10-10-10-10-9-9-9-9-9-7-7--7-x-5--5--|
E|--3-3-3-3-3-3-3-3-3-3-3-3-5-5-5-5-5-5-5-5-5-5-5-5-8--8--8--8--7-7-7-7-7----------------|


[Post-Verse]
    
e|----------------------------------|
B|----------------------------------|
G|------------------7---7---7---7---|
D|--5---5---5---5---7---7---7---7---|
A|--5---5---5---5---5---5---5---5---|
E|--3---3---3---3-------------------|


[Bridge]

e|------------------------------------|------------------------------------|
B|------------------------------------|------------(x2)--------------------|
G|------------(x2)--------------------|------------------------------------|
D|------------------------------------|--7-7-7-7-7-7----7-7-7-7-7-7-7-7-7--|
A|--5-5-5-5-5-5----5-5-5-5-5-5-5-5-5--|--5-5-5-5-5-5----5-5-5-5-5-5-5-5-5--|
E|--3-3-3-3-3-3----3-3-3-3-3-3-3-3-3--|------------------------------------|


e|------------------------------------|----------------------------------|
B|------------------------------------|----------------------------------|
G|------------(x2)--------------------|--7--7--7-7-7--7--7--7-7-7-7-7-7--|
D|------------------------------------|--7--7--7-7-7--7--7--7-7-7-7-7-7--|
A|--5-5-5-5-5-5----5-5-5-5-5-5-5-5-5--|--5--5--5-5-5--5--5--5-5-5-5-5-5--|
E|--3-3-3-3-3-3----3-3-3-3-3-3-3-3-3--|----------------------------------|
                     (pick slide at end on seperate guitar)


[Chorus]
  
e|-------(x3)---------|--------------------|
B|--------------------|--------------------|
G|----------5-5--7-7--|-----------7-7-7-7--|
D|-5-5-5-5--5-5--7-7--|--7-7-7-7--7-7-7-7--|
A|-5-5-5-5--3-3--5-5--|--7-7-7-7--5-5-5-5--|
E|-3-3-3-3------------|--5-5-5-5-----------|

************************************

| /  slide up
| \  slide down
| h  hammer-on
| p  pull-off
| ~  vibrato
| +  harmonic
| x  Mute note

************************************
Suggest correction
comments
print report bad tab
21 comments total. Showing first comments.
+6 reply
Jaggers 56 Aug 29, 2006 08:04 AM

Spot on! We definatley need more Fratellis tabs!

+2 reply
mattsem 46 Sep 06, 2006 04:27 PM

yeah they absolutley rock fantastic tab man, ive been waitin for this for ages

-1 reply
Hsupernova 31 Sep 20, 2006 05:20 PM

awesome th starts sounds gr8 with lotsa distortion. The frattelis r goin rite 2 the top

guest
You may want to rate the tab now too:
select rating
Wanna post a correction for this tab? Suggest correction