Oops, an error
Loading. Please wait.

Chelsea Dagger Bass Tab

version 3
version 3

Interactive

2,642 views 1 this week
1 commentread comment
1 2 3 4 5
please rate
add to favorites
launch autoscroll
font size
0
reset
guitar tuner
Tab Pro tools
  • play this tab
  • loop segment
  • change instrument
  • show fretboard
  • metronome
×
Best way to learn
"Chelsea Dagger"
Autoscroll
slow
fast
+/-
esc
set tempo
stop
Contributor
|----------------------------------------------------------------------------|
|---------------------------------------------------------------/12-12-10----|
|----------------------------------3-3-3-3-3-2-2-2-2/7-7-7-7-5------------12-|  X2
|-3-3-3-3-3-3-30345-5-5-55-5555-55-------------------------------------------|

|-------------------------------------------------------------------|
|-------------------------------------------------------------------|
|-9/-5-567-765-567-765-567-765-567-76-------------------------------|
|----------------------------------5-567-765-567-765-567-765-567-76-|

|---------------------------------------------------|
|---------------------------------------------------|
|---------------------------------------------------|
|-3-3333-3333-3333-33333333-3333-3333-3333-33333333-|

|---------------------------------------------------|
|---------------------------------------------------|
|5-5555-5555-5555-555555555-5555-5555-5555-55555555-|
|---------------------------------------------------|

|---------------------------------------------------|
|---------------------------------------------------|
|---------------------------------------------------|
|-3-3333-3333-3333-33333333-3333-3333-3333-33333333-|

|---------------------------|
|---------------------------|
|5--5--55--5--5--5-55555555-|
|---------------------------|

|-----------------------------------------------------------------|
|-----------------------------------------------------------------|
|---------333-5555--------333-5555--------333-5555--------555-333-|
|-3-3-3-3---------3-3-3-3---------3-3-3-3---------5-5-5-5---------|

|-------------------------------------------------------------------|
|-------------------------------------------------------------------|
|---------333-5555--------333-5555--------333-5555----7-10-7-55-333-|
|-3-3-3-3---------3-3-3-3---------3-3-3-3---------5-5---------------|

|---------------------------------------------------------------------------|
|---------------------------------------------------------------------------|
|-------------------------------------5-5-5-5-5-5-5-5-5555-5-5-5-5-5-5-75---|
|-3-3-3-3-3-3-3030-3-3-3-3-3-3-3-3035------------------------------------75-|

|----------------------------------------------------------------------------|
|----------------------------------------------------------------------------|
|-------------------------------------5-5-5-5-5-5-5-5-5555-5-5-5-5-5-5-75----|
|-3-3-3-3-3-3-3030-3-3-3-3-3-3-3-3035------------------------------------753-|
comments
We did not receive enough feedback on this tab! Please rate:
print report bad tab
1 2 3 4 5
1 comment total.
0 reply
lilwelshrocker wrote on June 6 2007, 01:33 pm

most of the music dnt match the tune at all

I want to post or [tab]
guest
You may want to rate the tab now too:
select rating
Please do not post tabs as comments. Select "correction" instead!