Oops, an error
Loading. Please wait.

Chelsea Dagger Tab

version 3
version 3

Whole song

Interactive

7,351 views 3 this week
1 commentread comment
1 2 3 4 5
worth learning
x 4
add to favorites
launch autoscroll
font size
0
reset
how to read this tab
guitar tuner
Tab Pro tools
  • play this tab
  • loop segment
  • change instrument
  • show fretboard
  • metronome
Autoscroll
slow
fast
+/-
esc
set tempo
stop
Contributor
Difficulty
novice
Chelsea Dagger - The Fratellis

Standard tuning


Intro

e|-----------------------------------------------------------------|
B|-----------------------------------------------------------------|
G|--------------------------------------------------7---7---7---7--|
D|---------------------------------7-7-7-7-7-7-777-77---7---7---7--|
A|-5-5-5-5-5-5-555-5-5-5-5-5-5-555-5-5-5-5-5-5-555-55---5---5---5--|
E|-3-3-3-3-3-3-333-3-3-3-3-3-3-333---------------------------------| 1x

Verse 1

e|----------------|
B|----------------|
G|---------7------|
D|--5------7-x16--|
A|--5-x16--5------|
E|--3-------------|   1x

Verse 2

e|---------------------------------------------------------------------|
B|---------------------------------------------------------------------|
G|------------------------------------------------------9-9--9-x-7--7--|
D|--5-555-555-55555-7-777-777-77777-10-10-10-10-9-9-999-9-9--9-x-7--7--|
A|--5-555-555-55555-7-777-777-77777-10-10-10-10-9-9-999-7-7--7-x-5--5--|
E|--3-333-333-33333-5-555-555-55555-8--8--8--8--7-7-777----------------| 2x

Tussenstuk 1

e|----------------------|----------------------|
B|----------------------|----------------------|
G|----------------------|----------------------|
D|---5-5-5-5-5-5-5-55---|---7-7-7-77-7-7-7-77--|
A|---5-5-5-5-5-5-5-55---|---7-7-7-77-7-7-7-77--|
E|---3-3-3-3-3-3-3-33---|---5-5-5-55-5-5-5-55--|

Verse 1
e|----------------|
B|----------------|
G|---------7------|
D|--5------7-x16--|
A|--5-x16--5------|
E|--3-------------|   1x

Verse 2

e|---------------------------------------------------------------------|
B|---------------------------------------------------------------------|
G|------------------------------------------------------9-9--9-x-7--7--|
D|--5-555-555-55555-7-777-777-77777-10-10-10-10-9-9-999-9-9--9-x-7--7--|
A|--5-555-555-55555-7-777-777-77777-10-10-10-10-9-9-999-7-7--7-x-5--5--|
E|--3-333-333-33333-5-555-555-55555-8--8--8--8--7-7-777----------------| 2x


Tussenstuk 2

e|----------------------|----------------------|
B|----------------------|----------------------|
G|----------------------|----------------------|
D|---5-5-5-5-5-5-5-5----|---7-7-7-7-7-7-7-77---|
A|---5-5-5-5-5-5-5-5----|---7-7-7-7-7-7-7-77---|
E|---3-3-3-3-3-3-3-3----|---5-5-5-5-5-5-5-55---|

Tussenstuk 3
e|----------------------|----------------------|
B|----------------------|------(x2) -----------|
G|---------(x2)---------|----------------------|
D|----------------------|--7-7777-7777-777777--|
A|--5-5555-5555-555555--|--5-5555-5555-555555--|
E|--3-3333-3333-333333--|----------------------|

tussenstuk 2*
e|---------3------------|----------------------------|
B|----------------------|----------------------------|
G|---------(x2)---------|--7--7--77-7--7--7--777777--|
D|--5-5555-5555-555555--|--7--7--77-7--7--7--777777--|
A|--5-5555-5555-555555--|--5--5--55-5--5--5--555555--|
E|--3-3333-3333-333333--|----------------------------|

Chorus

e|-------(x3)---------|--------------------|
B|--------------------|--------------------|
G|----------5-5--7-7--|-----------7-7-7-7--|
D|-5-5-5-5--5-5--7-7--|--7-7-7-7--7-7-7-7--|
A|-5-5-5-5--3-3--5-5--|--7-7-7-7--5-5-5-5--|
E|-3-3-3-3------------|--5-5-5-5-----------| 2x

Verse 1

e|----------------|
B|----------------|
G|---------7------|
D|--5------7-x16--|
A|--5-x16--5------|
E|--3-------------|   2x

Tabbed by Ralf 
comments
print report bad tab
1 comment total.
0 reply
antroolez wrote on February 5 2007, 06:43 am

I swear this is exactly the same as the ones already on here....

I want to post or [tab]
guest
You may want to rate the tab now too:
select rating
Please do not post tabs as comments. Select "correction" instead!