Oops, an error
Loading. Please wait.

Chelsea Dagger Bass Tab

version 4
version 4

Interactive

13,863 views 1 this week
no commentswrite comment
1 2 3 4 5
accurate
x 3
add to favorites
launch autoscroll
font size
0
reset
guitar tuner
Tab Pro tools
  • play this tab
  • loop segment
  • change instrument
  • show fretboard
  • metronome
×
Best way to learn
"Chelsea Dagger"
Autoscroll
slow
fast
+/-
esc
set tempo
stop
Contributor
Difficulty
intermediate
----------------------------------------------------------------------------
			     CHELSEA DAGGER- The Fratellis
----------------------------------------------------------------------------
Tabbed By : Sandman sndr
e-mail: Sandmansndr@hotmail.com

Tuning: normal

This song is pretty easy... some parts might be hard only because of rhythm, timing, etc.

Intro
Start on 4th bar
G|----------------------------|
D|--3/5-5-5-5-5-5-5-5-5-3-----|
A|------------------------5---|
E|--------------------------6-|

G|---------------------------------------------------------------|
D|---------------------------------------------------5-------5--5|
A|---------------------------------------------------------------|
E|3---3---3---3---3---3---3--33--33---3---3---3--33---3--33---3--|

G|-------------------------------------------------------------------------|
D|-------------------------------------------------------------------------|
A|----------------------------------------------------------------5---5---5|
E|3---3---3---3---3---3---3--33--33---3---3---3---3---3---3--33--3---------|

G|-------------------------------------|
D|-------------------------------------|
A|---5---5---5---5--55--5--5---5---5--5|
E|-------------------------------------|
                           ^ weird rhythm at 0:22
|| Chorus1 ||
G|-------------------------------------------------------------------------|
D|-------------------------------------------------------------------------|
A|-----------------------------------------------------------2----5---5---5|
E|3---3---3---3---3---3---3--33--33---3---3---3---3---3---3----------------|

G|-------------------------------------------------------|
D|-------------------------------------------------------|
A|---5---5---5---5---5---5---5---5---5---5---5---5---5---|
E|-------------------------------------------------------| 
above 2 bars 2x

|| verse ||
G|-------------------------------------------------------------|
D|-------------------------------------------------------------|
A|-------------------------------------------------------------|
E|3---3---3---3---3---3---3---3---5---5---5---5---5---5---5---5| 
some variation

G|----------------------------------------------------------/7-5----|
D|---------------------------------------------------------------7-5|
A|---3---3---3---3---2---2---2---2--/7---7---7--77---5---5----------|
E|------------------------------------------------------------------|

G|-------------------------------------------------------------|
D|-------------------------------------------------------------|
A|-------------------------------------------------------------|
E|3---3---3---3---3---3---3---3---5---5---5---5---5---5---5---5|

                                                        "WOW"
G|--------------------------------------------------------------|
D|--------------------------------------------------------------|
A|3---3---3---3---2---2---2---2--/7---7---7--77---5-------12\---|
E|--------------------------------------------------------------|

|| Chorus2 ||
G|----------------------------------------------|
D|------------------5----------------------5----|
A|-5-67--7-65--5-67--7-65-5-67--7-65--5-67--7---|
E|3---------------------------------------------|

G|----------------------------------------------|
D|----------------------------------------------|
A|------------------5----------------------5----|
E|-5-67--7-65--5-67--7-65-5-67--7-65--5-67--7-5-|

Then....
Chorus1 (only once)
Verse
Chorus2

|| the rest ||
G|----------------------------------------------------|
D|----------------------------------------------------|
A|----------------------------------------------------|
E|-3--3333--3333--3333333333--3333--3333--3333333333--|

G|-----------------------------------------------------|
D|-----------------------------------------------------|
A|-5--5555--5555--5555555555--5555--5555--55555555555--|
E|-----------------------------------------------------|


G|-------------------------------------------------------------------------|
D|-------------------------------------------------------------------------|
A|---------------------------------------------------5------5--------55---5|
E|-3--3333--3333--3333333333--3333--3333--3333333333-----------------------|
                                                      ^ weird rhythm at 2:36
G|----------------------------------------------------------------|
D|----------------------------------------------------------------|
A|-5------5---------55-55-55-55-5-----------------3---3---5---5---|
E|--------------------------------3---3---3---3-------------------|

G|---------------------------------|   \
D|---------------------------------|    \
A|-----------------3---3---5---5---|     \
E|-3---3---3---3-------------------|3x    \ 2x
                                          /
G|---------------------------------|     /
D|---------------------------------|    /
A|-----------------5---5---5---5---|   /
E|-5---5---5---5-------------------|  /

Chorus1 (2x)

THE END

Alright i'm pretty sure this is right

Good luck!

| /  slide up
| \  slide down
| h  hammer-on
| p  pull-off
| ~  vibrato
| +  harmonic
| x  Mute note
============================================================================
comments
We did not receive enough feedback on this tab! Please rate:
print report bad tab
1 2 3 4 5
I want to post or [tab]
guest
You may want to rate the tab now too:
select rating
Please do not post tabs as comments. Select "correction" instead!