Oops, an error
Loading. Please wait.

Chelsea Dagger Bass

version 5
version 5

Interactive

17,091 views 36 this week
no commentswrite comment
1 2 3 4 5
x 13
add to favorites
launch autoscroll
font size
0
reset
guitar tuner
×
Best way to learn
"Chelsea Dagger"
Autoscroll
slow
fast
+/-
esc
set tempo
stop
Author
Difficulty
  follow
intermediate
G|-----------------|
D|--355555-35555---|
A|--------------5--|
E|---------------3-|

G|---------------------------------|
D|---------------------------------|
A|---------------------------------| (x2)
E|-3-3-3-3-3-3-3-3-3-3-3-3-3-3-3-3-|

G|------------------------------------|
D|------------------------------------|
A|--45-5-5-5-5-5-5-5-5-5-5-5-5-5-5-5--|
E|------------------------------------|

G|---------------------------------|
D|---------------------------------|
A|---------------------------------|
E|-3-3-3-3-3-3-3-3-3-3-3-3-3-3-3-3-|

G|------------------------------------|
D|------------------------------------|
A|--45-5-5-5-5-5-5-5-5-5-5-5-5-5-5-5--|
E|------------------------------------|

G|------------------------------------------------------|---7575----|---------|
D|---------------------------------------------2-2-2-2--|-------7---|---------| (x2)
A|-----------------------------3-3-3-3-2-2-2-2----------|-5---------|-5555555-|
E|-3-3-3-3-3-3-3/5-5-5-5-5-5-5--------------------------|-----------|---------|

G|----------|
D|---9\-----|
A|----------|
E|----------|

G|------------------|----------------|
D|-------------5----|------------5---|
A|--567-765-567-7\--|-567-765-567-7~-|
E|------------------|----------------|

G|------------------|-----------------|
D|------------------|-----------------|
A|-------------5----|------------5----|
E|--567-765-567-7\5-|-567-765-567-5~--|

G|---------------------------------|
D|---------------------------------|
A|---------------------------------|
E|-3-3-3-3-3-3-3-3-3-3-3-3-3-3-3-3-|

G|------------------------------------|
D|------------------------------------|
A|--45-5-5-5-5-5-5-5-5-5-5-5-5-5-5-5--|
E|------------------------------------|

G|------------------------------------------------------|---7575----|---------|
D|---------------------------------------------2-2-2-2--|-------7---|---------| (x2)
A|-----------------------------3-3-3-3-2-2-2-2----------|-5---------|-5555555-|
E|-3-3-3-3-3-3-3/5-5-5-5-5-5-5--------------------------|-----------|---------|

G|------------------|----------------|
D|-------------5----|------------5---|
A|--567-765-567-7\--|-567-765-567-7~-|
E|------------------|----------------|

G|------------------|-----------------|
D|------------------|-----------------|
A|-------------5----|------------5----|
E|--567-765-567-7\5-|-567-765-567-5~--|

            (x2)                          (x2)
G|--------------------------|--------------------------|
D|--------------------------|--------------------------|
A|--------------------------|--5-5555-5555-5555555555--|
E|--3-3333-3333-3333333333--|--------------------------|

             (x2)
G|--------------------------|-7-7-77-7--7-7--777777-|
D|--5-5555-5555-5555555555--|---------------5-------|
A|--------------------------|-----------------------|
E|--------------------------|-----------------------|

          (x3)                  
G|-------------------|------------------|
D|-------------------|------------------| (x2)
A|----------3-3-5-5--|----------5555555-|
E|--3-3-3-3----------|--5-5-5-5---------|

G|---------------------------------|
D|---------------------------------|
A|---------------------------------|
E|-3-3-3-3-3-3-3-3-3-3-3-3-3-3-3-3-|

G|------------------------------------|
D|------------------------------------|
A|--45-5-5-5-5-5-5-5-5-5-5-5-5-5-5-5--|
E|------------------------------------|

G|-----------------------------------|
D|-----------------------------------|
A|-----------------------------------|
E|-3-3-3-3-3-3-3-3-3-3-3-3-3-3-3-3---|

G|------------------------------------|
D|------------------------------------|
A|--45-5-5-5-5-5-5-5-5-5-5-5-5-5-5-5--|
E|------------------------------------|


************************************

| /  Slide up
| \  Slide down
| ~  Vibrato

************************************
Suggest correction
comments
print report bad tab
guest
You may want to rate the tab now too:
select rating
Wanna post a correction for this tab? Suggest correction