Oops, an error
Loading. Please wait.

Cigarello Bass Tab

version 1
version 1

Whole song

Interactive

1,011 views 1 this week
1 commentread comment
1 2 3 4 5
x 3
add to favorites
launch autoscroll
font size
0
reset
guitar tuner
Autoscroll
slow
fast
+/-
esc
set tempo
stop
Help us to improve Ultimate-Guitar.com Take our survey!
×
Author
Intro:

G|---------------------|
D|---------------------| x4
A|-----33--33--33------|
E|-----------------33--|


Verse:

G|---------------------------------|
D|---------------------------------| x4
A|---3-33-33-33--------33-33-33----|
E|-------------33---------------33-|


Pre-Chorus:
G|--------------------------------------|
D|--------------------------------------|
A|---------5-55-55-------------5-55-55--|
E|-5-55-55-------------5-55-55----------|


Chorus:
G|--------------------------------------|
D|--------------------------------------| x2
A|-3-33-33-------------3-33-33----------|
E|----------1-11-11------------3-33-33--|


For the solo I think he just plays:

G|--------------------------------------|
D|--------------------------------------|
A|---------5-55-55-------------5-55-55--|
E|-5-55-55-------------5-55-55----------|

please rate

A. Taylor

Suggest correction
Give kudos to tab author, rate the tab!
1 2 3 4 5
comments
print report bad tab
1 comment total.
0 reply
tbate54 10 Jan 12, 2014 11:40 PM

Nice one! Quick and easy. Good job.

guest
You may want to rate the tab now too:
select rating
Wanna post a correction for this tab? Suggest correction