Oops, an error
Loading. Please wait.

Country Boys And City Girls Tab

version 1
version 1

Intro

Whole song

2,833 views 6 this week
6 commentsread comments
1 2 3 4 5
x 3
add to favorites
launch autoscroll
font size
0
reset
how to read this tab
guitar tuner
Autoscroll
slow
fast
+/-
esc
set tempo
stop
Help us to improve Ultimate-Guitar.com Take our survey!
×
Author
The rhythms quite hard to write just listen and you'll hear it....basically let the 
strum ring for a bit then cut it short by playing the other parts quickly

i know this isn't 100% but never mind its a start eh?

         
E|-------7--7--7--7--2--------------|
B|-------7--7--7--7--2--------------|
G|-------8--8--8--8--3--------------|
D|-------9--9--9--9--4--------------|
A|-------9--9--9--9--2--------------|
E|--7----7--7--7--7--2--------------|

then, after the intro....when the (kind of) singin begins:


    D  U  D  U   D  D
E|--7--7--7--7---6--5----------|
B|--7--7--7--7---6--5----------|
G|--8--8--8--8---7--6----------|
D|--9--9--9--9---8--7----------|
A|--9--9--9--9---8--7----------|
E|--7--7--7--7---6--5----------|

please rate....
A. Taylor

giggity
Suggest correction
Give kudos to tab author, rate the tab!
1 2 3 4 5
comments
print report bad tab
6 comments total. Showing first comments.
0 reply
patinthehat 31 Apr 05, 2007 05:44 PM

You need that "little note" after your part. This is no where near finished. Why did you submit an intro that isn't even complete?

The rhythm is very easy. This is what I have of it, and I haven't tabbed it yet because I don't think it's completely correct or ready.

____3____
| |
1 + 2 + 3 + 4 + 1 + 2 + 3 + 4 + 1 +
E|--7---7-7---7-7---2-----0-0---0---0----|
B|--7---7-7---7-7---2-----5-5---4---3----|
G|--8---8-8---8-8---3-----0-0---0---0----|
D|--9---9-9---9-9---4-----0-0---0---0----|
A|--9---9-9---9-9---4--------------------|
E|--7---7-7---7-7---2--------------------|

0 reply
antroolez 920 Apr 05, 2007 05:47 PM

because no-one else had even thought about submitting a tab for this song....i was the first to do so, i said 'i know this isn't 100% but it's a start'

how many contributions have you made to this site?

anyway congratulations for workin out a song that already has tabs to it...

pity the fool

0 reply
patinthehat 31 Apr 05, 2007 06:01 PM

Wow, that got screwed up. This is what I meant:


............................____3____
............................|........|
....1 + 2 + 3 + 4 + 1 + 2 + 3 + 4 + 1 +
E|--7---7-7---7-7---2-----0-0---0---0----|
B|--7---7-7---7-7---2-----5-5---4---3----|
G|--8---8-8---8-8---3-----0-0---0---0----|
D|--9---9-9---9-9---4-----0-0---0---0----|
A|--9---9-9---9-9---4--------------------|
E|--7---7-7---7-7---2--------------------|

guest
You may want to rate the tab now too:
select rating
Wanna post a correction for this tab? Suggest correction