Oops, an error
Loading. Please wait.

Creepin Up The Backstairs Bass Tab

version 1
version 1

Whole song

Interactive

4,508 views 6 this week
3 commentsread comments
1 2 3 4 5
x 8
add to favorites
launch autoscroll
font size
0
reset
guitar tuner
Autoscroll
slow
fast
+/-
esc
set tempo
stop
Help us to improve Ultimate-Guitar.com Take our survey!
×
INTRO/CHORUS  0:20
G|-0-0--3-3--2-2--1-1--0-0--3-3--22--1-|  (2-2 fast, not 22)
D|-------------------------------------|
A|-------------------------------------|
E|-------------------------------------|   x2


VERSE
G|-------------------------------------|
D|-------------------------------------|
A|-------------------------5--3--2--0--|
E|-3-3-33--0-0-00--5-5-55--------------|   x6


PRE CHORUS  0:51
G|-------------------------------------|
D|-------------------------------------|
A|---------------5--3--2--0------------|
E|-3-3--0-0--6-------------------------|   x3

G|-------------------------------------|
D|-------------------------------------|
A|-------------------5--3--2--0--------|
E|-3-3-3--0-0-0--6---------------------|   x1


CHORUS  1:15

G|-0-0--3-3--2-2--1-1--0-0--3-3--22--1-|  
D|-------------------------------------|
A|-------------------------------------|
E|-------------------------------------|   x2


VERSE
G|-------------------------------------|
D|-------------------------------------|
A|-------------------------5--3--2--0--|
E|-3-3-33--0-0-00--5-5-55--------------|   x6

                        

                                 |..END..|


PRE CHORUS 
G|-------------------------------------|
D|-------------------------------------|
A|---------------5--3--2--0------------|
E|-3-3--0-0--6-------------------------|   x3

G|-------------------------------------|
D|-------------------------------------|
A|-------------------5--3--2--0--------|
E|-3-3-3--0-0-0--6---------------------|   x1



CHORUS 
G|-0-0--3-3--2-2--1-1--0-0--3-3--22--1-|  
D|-------------------------------------|
A|-------------------------------------|
E|-------------------------------------|   x4


VERSE
G|-------------------------------------|
D|-------------------------------------|
A|-------------------------5--3--2--0--|
E|-3-3-33--0-0-00--5-5-55--------------|   x4


CHORUS 
G|-0-0--3-3--2-2--1-1--0-0--3-3--22--1-|  
D|-------------------------------------|
A|-------------------------------------|
E|-------------------------------------|   x5
Suggest correction
comments
print report bad tab
3 comments total.
0 reply
hendo123456789 30 Dec 21, 2006 02:57 PM

good tab, although i think its better if the chorus is played an octave lower

0 reply
astro0930 256 Dec 02, 2007 08:57 PM

I was just going to say that. ^^

So it would be


A|-----1-1-0-0-------
E|3-3----------4-4---

Or something
like that.

-1 reply
ptansani 61 Nov 29, 2008 07:12 PM

your missing the bridge, which is the chorus only 5 notes higher, so its c, d#, d, c#. After that to, it loses its order. Also, i think the chorus should be an octave lower.

guest
You may want to rate the tab now too:
select rating
Wanna post a correction for this tab? Suggest correction