Oops, an error
Loading. Please wait.

Creepin Up The Backstairs Bass Tab

version 2
version 2

Whole song

Interactive

5,805 views 15 this week
1 commentread comment
1 2 3 4 5
2 more votes to show rating
add to favorites
launch autoscroll
font size
0
reset
guitar tuner
Autoscroll
slow
fast
+/-
esc
set tempo
stop
Help us to improve Ultimate-Guitar.com Take our survey!
×
Author
Difficulty
intermediate
Fratellis are one of the best new bands this year and this is one of the best tracks of 
year.

Intro/Interlude

G|--------------------------------|
D|--------------------------------|
A|--------------------------------|
E|3-3-6-6-5-5-4-4-3-3-6-6--55-4---|

Verse

G|--------------------------------|
D|--------------------------------|
A|----------------0-0---0-5-3-2-0-|
E|3-3---1-0-0---0-----------------|

sometimes he changes the run at the end of the verse to...

G|--------|
D|--------|
A|5-0-5-0-|
E|--------|

Chorus

G|--------------------------------|
D|--------------------------------|
A|----------------666666665-3-2-0-|
E|3-3-----0-0---------------------|

after the second chorus it goes back to playing the intro again but after it plays twice 
goes up a tone so its...

G|--------------------------------|
D|--------------------------------|
A|--------------------------------|
E|5-5-8-8-7-7-6-6-5-5-8-8--77-6---|

there is another variation on this at the end of the song where the bass goes up at the end

G|--------------------------------|
D|--------------------------------|
A|------------------------3-3-5-5-|
E|3-3-6-6-5-5-4-4-3-3-6-6---------|

That's all the parts now work the order out and enjoy.
Suggest correction
Give kudos to tab author, rate the tab!
1 2 3 4 5
comments
print report bad tab
1 comment total.
0 reply
chocolateman900 20 Jul 19, 2011 07:47 AM

Pretty near perfect but I'm pretty sure when the bassline goes up with the main riff it just all goes up a string, not just 2 frets

guest
You may want to rate the tab now too:
select rating
Wanna post a correction for this tab? Suggest correction