Oops, an error
Loading. Please wait.

Creepin Up The Backstairs Tab

version 2
version 2

Whole song

Interactive

4,024 views 6 this week
1 commentread comment
1 2 3 4 5
x 5
add to favorites
launch autoscroll
font size
0
reset
how to read this tab
guitar tuner
Autoscroll
slow
fast
+/-
esc
set tempo
stop
Help us to improve Ultimate-Guitar.com Take our survey!
×
Creepin’ Up the Backstairs
The Fratellis

a great song on the costello music album, i hope this helps
chamara out.

Intro/chorus
e|-3-3--6-6--5-5--4-4--3-3--6-6--x-5-5--4--------------------------------------|
B|-3-3--6-6--5-5--4-4--3-3--6-6--x-5-5--4--------------------------------------|
G|-4-4--7-7--6-6--5-5--4-4--7-7--x-6-6--5--------------------------------------|
D|-5-5--8-8--7-7--6-6--5-5--8-8--x-7-7--6----x-4-------------------------------|
A|-5-5--8-8--7-7--6-6--5-5--8-8--x-7-7--6--------------------------------------|
E|-3-3--6-6--5-5--4-4--3-3--6-6--x-5-5--4--------------------------------------|

Verse – Lead (guitar one)

                                      Hold 6 note and slide to 7
e|--------3-----------10-----------5-----------8----7----5--------------------|
B|------3---3-------9----9-------5---5-------7--------------------------------|
G|--2/4-------4--/9--------9--/6-------6--/7------7---7----7------------------|
D|----------------------------------------------------------------x6----------|
A|----------------------------------------------------------------------------|
E|----------------------------------------------------------------------------|

Guitar 2 (with the lead in the background and in the prechorus three times)
e|--3-3---------5-5-5-5-------------------------------------------------------|
B|--3-3---9-9---5-5-5-5---7-7-7-7---------------------------------------------|
G|--4-4---9-9---5-5-5-5---7-7-7-7---------------------------------------------|
D|--5-5---9-9---7—7-7-7---7-7-7-7---------------------------------------------|
A|--5-5---7-7---7-7-7-7---5-5-5-5---------------------------------------------|
E|--3-3---------5-5-5-5-------------------------------------------------------|

Chorus x 4

Verse x6

Chorus x 4

Then continuing from the chorus
e|-8--8-----11-11--10-10--9--9-----8--8---11-11--x-10-10--9-------------------|
B|-8--8-----11-11--10-10--9--9-----8--8---11-11--x-10-10--9-------------------|
G|-9--9-----12-12--11-11--10-10----9--9---12-12--x-11-11--10------------------|
D|-10-10----13-13--12-12--11-11----10-10--13-13--x-12-12--11—----x2-----------|
A|-10-10----13-13--12-12--11-11----10-10--13-13--x-12-12--11------------------|
E|-8--8-----11-11--10-10--9--9-----8--8---11-11--x-10-10--9-------------------|

Then linking onto the prechorus chords
e|----------------------------------------------------------------------------|
B|-12-x-11-x-10-x-9-x-8-------------------------------------------------------|
G|-12-x-11-x-10-x-9-x-8-------------------------------------------------------|
D|-12-x-11-x-10-x-9-x-8-------------------------------------------------------|
A|-10-x-9--x-8--x-7-x-6-------------------------------------------------------|
E|----------------------------------------------------------------------------|

Prechorus

Then singing and then the guitar joins in with the chorus chords after one part of 
and plays till the end.

great tab, hope you enjoy :)
Suggest correction
comments
print report bad tab
1 comment total.
0 reply
sonno92 22 Nov 30, 2015 02:30 PM

Thanks for the lead guitar part! It seems perfect!

guest
You may want to rate the tab now too:
select rating
Wanna post a correction for this tab? Suggest correction