Oops, an error
Loading. Please wait.

Creepin Up The Backstairs Tab

version 3
version 3

Whole song

Interactive

5,378 views 1 this week
2 commentsread comments
1 2 3 4 5
accurate
x 3
add to favorites
launch autoscroll
font size
0
reset
how to read this tab
guitar tuner
Autoscroll
slow
fast
+/-
esc
set tempo
stop
Help us to improve Ultimate-Guitar.com Take our survey!
×
Author
Difficulty
daustin 59
intermediate
----------------------------------------------------------------------------
                             Creeping up the backstairs- The Fratellis
----------------------------------------------------------------------------
Band website: www.thefratellis.com

Tabbed by:Dan Austin aka Mango Man
Email:porcomatamacaco@hotmail.co.uk
Tuning: Standard

Check out this awesome new band.

Chords used
       E A D G B e
A#:    6 8 8 7 6 6
A:     5 7 7 6 5 5
G#:    4 6 6 5 4 4
G:     3 5 5 4 3 3
D#/Cbm:0 6 8 8 7 6
Dm:    0 5 7 7 6 5
C#/Bbm:0 4 6 6 5 4
Cm:    0 3 5 5 4 3

Intro
    A# A   G#  G
e|-6-6-5-5-4-4-3-3--6-6-5-5-x-x-4-3------------------------------------|
B|-6-6-5-5-4-4-3-3--6-6-5-5-x-x-4-3------------------------------------|
G|-7-7-6-6-5-5-4-4--7-7-6-6-x-x-5-4------------------------------------|
D|-8-8-7-7-6-6-5-5--8-8-7-7-x-x-6-5------------------------------------| x6
A|-8-8-7-7-6-6-5-5--8-8-7-7-x-x-6-5------------------------------------|
E|-6-65-54-43-3--6-6-5-5-x-x-4-3---------------------------------------|

Chorus (part 1)
e|-3-3--6-6--6------4---------------------------------------|
B|-3-3--6-6--5------4---------------------------------------|
G|-4-4--7-7--6-(x6)-5-(x6)----------------------------------|
D|-5-5--8-8--7------6---------------------------------------|
A|-5-5--8-8--7------6---------------------------------------|
E|-3-3--6-6--5-----4----------------------------------------|
Chorus (part 2)-back to intro

Leads into verse 2

One part later on- played in same style.

A#,A,G#,G (x2)Played in same way as intro
D#,Dm,C#,Cm

I'm not totally sure about the verses, as the lead is played loudly over the top. I'd 
following the bass if anyone tabs that.


| /  slide up
|   slide down
| h  hammer-on
| p  pull-off
| ~  vibrato
| +  harmonic
| x  Mute note
============================================================================
Suggest correction
What's this?
You can suggest a correction to this tab. Community and Mods will review your correction and vote to approve or reject it.
comments
We did not receive enough feedback on this tab! Please rate:
print report bad tab
1 2 3 4 5
2 comments total.
0 reply
maisey ferret 773 wrote on June 21 2006, 06:46 am

Wheres the lead part?

0 reply
daustin 59 wrote on June 22 2006, 03:21 am

this is a rubbish version anyway, the guy who recently did it has it perfect?

guest
You may want to rate the tab now too:
select rating
Please do not post tabs as comments. Select "correction" instead!